ISO-10303-21;
HEADER;
FILE_DESCRIPTION(('CATIA V5 STEP Exchange','CAx-IF Rec.Pracs.--- Model Styling and Organization---1.2---2011-12-15'),'2;1');

FILE_NAME('\\\\datfrlgs003.limousin.fr.grpleg.com\\it_referentiel\\transcad\\sortie\\fabien.fantini@legrand.fr\\213\\S08076040.stp','2013-11-29T14:44:21+00:00',('none'),('none'),'Unofficial Packaging Version','CATIA V5 STEP AP214 Edition 3','none');

FILE_SCHEMA(('AUTOMOTIVE_DESIGN { 1 0 10303 214 3 1 1 1 }'));

ENDSEC;
DATA;
#5=PRODUCT('S08076040','','',(#2)) ;
#2=PRODUCT_CONTEXT(' ',#1,'mechanical') ;
#1=APPLICATION_CONTEXT('automotive design') ;
#10=PRODUCT_DEFINITION('',' ',#6,#3) ;
#3=PRODUCT_DEFINITION_CONTEXT('part definition',#1,' ') ;
#11=PRODUCT_DEFINITION_SHAPE(' ',' ',#10) ;
#303=MECHANICAL_DESIGN_GEOMETRIC_PRESENTATION_REPRESENTATION(' ',(#78,#102,#149,#187,#225,#254,#277,#300,#29),#16) ;
#19=SHAPE_REPRESENTATION(' ',(#18),#16) ;
#18=AXIS2_PLACEMENT_3D(' ',#17,$,$) ;
#34=AXIS2_PLACEMENT_3D('Cylinder Axis2P3D',#31,#32,#33) ;
#47=AXIS2_PLACEMENT_3D('Circle Axis2P3D',#45,#46,$) ;
#61=AXIS2_PLACEMENT_3D('Circle Axis2P3D',#59,#60,$) ;
#81=AXIS2_PLACEMENT_3D('Circle Axis2P3D',#79,#80,$) ;
#86=AXIS2_PLACEMENT_3D('Circle Axis2P3D',#84,#85,$) ;
#106=AXIS2_PLACEMENT_3D('Cylinder Axis2P3D',#103,#104,#105) ;
#110=AXIS2_PLACEMENT_3D('Circle Axis2P3D',#108,#109,$) ;
#126=AXIS2_PLACEMENT_3D('Circle Axis2P3D',#124,#125,$) ;
#153=AXIS2_PLACEMENT_3D('Plane Axis2P3D',#150,#151,#152) ;
#191=AXIS2_PLACEMENT_3D('Plane Axis2P3D',#188,#189,#190) ;
#229=AXIS2_PLACEMENT_3D('Plane Axis2P3D',#226,#227,#228) ;
#258=AXIS2_PLACEMENT_3D('Plane Axis2P3D',#255,#256,#257) ;
#281=AXIS2_PLACEMENT_3D('Plane Axis2P3D',#278,#279,#280) ;
#17=CARTESIAN_POINT(' ',(0.,0.,0.)) ;
#31=CARTESIAN_POINT('Axis2P3D Location',(0.25,0.,0.)) ;
#36=CARTESIAN_POINT('Line Origine',(0.25,30.,0.)) ;
#40=CARTESIAN_POINT('Vertex',(0.,30.,0.)) ;
#42=CARTESIAN_POINT('Vertex',(0.5,30.,0.)) ;
#45=CARTESIAN_POINT('Axis2P3D Location',(0.,0.,0.)) ;
#49=CARTESIAN_POINT('Vertex',(0.,-30.,1.69966166929E-014)) ;
#52=CARTESIAN_POINT('Line Origine',(0.25,-30.,1.69966166929E-014)) ;
#56=CARTESIAN_POINT('Vertex',(0.5,-30.,1.69966166929E-014)) ;
#59=CARTESIAN_POINT('Axis2P3D Location',(0.5,0.,0.)) ;
#79=CARTESIAN_POINT('Axis2P3D Location',(0.,0.,0.)) ;
#84=CARTESIAN_POINT('Axis2P3D Location',(0.5,0.,0.)) ;
#103=CARTESIAN_POINT('Axis2P3D Location',(0.25,0.,0.)) ;
#108=CARTESIAN_POINT('Axis2P3D Location',(0.5,0.,0.)) ;
#112=CARTESIAN_POINT('Vertex',(0.5,-1.475,11.1528863977)) ;
#114=CARTESIAN_POINT('Vertex',(0.5,1.475,11.1528863977)) ;
#117=CARTESIAN_POINT('Line Origine',(0.25,1.475,11.1528863977)) ;
#121=CARTESIAN_POINT('Vertex',(0.,1.475,11.1528863977)) ;
#124=CARTESIAN_POINT('Axis2P3D Location',(0.,0.,0.)) ;
#128=CARTESIAN_POINT('Vertex',(0.,-1.475,11.1528863977)) ;
#131=CARTESIAN_POINT('Line Origine',(0.25,-1.475,11.1528863977)) ;
#150=CARTESIAN_POINT('Axis2P3D Location',(0.,-1.475,11.1528863977)) ;
#155=CARTESIAN_POINT('Line Origine',(0.5,-1.475,10.4514431988)) ;
#159=CARTESIAN_POINT('Vertex',(0.5,-1.475,9.75)) ;
#162=CARTESIAN_POINT('Line Origine',(0.,-1.475,10.4514431988)) ;
#166=CARTESIAN_POINT('Vertex',(0.,-1.475,9.75)) ;
#169=CARTESIAN_POINT('Line Origine',(0.25,-1.475,9.75)) ;
#188=CARTESIAN_POINT('Axis2P3D Location',(0.,-1.475,9.75)) ;
#193=CARTESIAN_POINT('Line Origine',(0.5,0.,9.75)) ;
#197=CARTESIAN_POINT('Vertex',(0.5,1.475,9.75)) ;
#200=CARTESIAN_POINT('Line Origine',(0.,0.,9.75)) ;
#204=CARTESIAN_POINT('Vertex',(0.,1.475,9.75)) ;
#207=CARTESIAN_POINT('Line Origine',(0.25,1.475,9.75)) ;
#226=CARTESIAN_POINT('Axis2P3D Location',(0.,1.475,9.75)) ;
#231=CARTESIAN_POINT('Line Origine',(0.5,1.475,10.4514431988)) ;
#236=CARTESIAN_POINT('Line Origine',(0.,1.475,10.4514431988)) ;
#255=CARTESIAN_POINT('Axis2P3D Location',(0.,0.,0.)) ;
#278=CARTESIAN_POINT('Axis2P3D Location',(0.5,0.,0.)) ;
#32=DIRECTION('Axis2P3D Direction',(1.,0.,0.)) ;
#33=DIRECTION('Axis2P3D XDirection',(0.,1.,0.)) ;
#37=DIRECTION('Vector Direction',(1.,0.,0.)) ;
#46=DIRECTION('Axis2P3D Direction',(1.,0.,0.)) ;
#53=DIRECTION('Vector Direction',(1.,0.,0.)) ;
#60=DIRECTION('Axis2P3D Direction',(1.,0.,0.)) ;
#80=DIRECTION('Axis2P3D Direction',(1.,0.,0.)) ;
#85=DIRECTION('Axis2P3D Direction',(1.,0.,0.)) ;
#104=DIRECTION('Axis2P3D Direction',(1.,0.,0.)) ;
#105=DIRECTION('Axis2P3D XDirection',(0.,-0.131111111111,0.991367679796)) ;
#109=DIRECTION('Axis2P3D Direction',(1.,0.,0.)) ;
#118=DIRECTION('Vector Direction',(1.,0.,0.)) ;
#125=DIRECTION('Axis2P3D Direction',(1.,0.,0.)) ;
#132=DIRECTION('Vector Direction',(1.,0.,0.)) ;
#151=DIRECTION('Axis2P3D Direction',(0.,-1.,0.)) ;
#152=DIRECTION('Axis2P3D XDirection',(0.,0.,-1.)) ;
#156=DIRECTION('Vector Direction',(0.,0.,-1.)) ;
#163=DIRECTION('Vector Direction',(0.,0.,-1.)) ;
#170=DIRECTION('Vector Direction',(1.,0.,0.)) ;
#189=DIRECTION('Axis2P3D Direction',(0.,0.,-1.)) ;
#190=DIRECTION('Axis2P3D XDirection',(0.,1.,0.)) ;
#194=DIRECTION('Vector Direction',(0.,1.,0.)) ;
#201=DIRECTION('Vector Direction',(0.,1.,0.)) ;
#208=DIRECTION('Vector Direction',(1.,0.,0.)) ;
#227=DIRECTION('Axis2P3D Direction',(0.,1.,0.)) ;
#228=DIRECTION('Axis2P3D XDirection',(0.,0.,1.)) ;
#232=DIRECTION('Vector Direction',(0.,0.,1.)) ;
#237=DIRECTION('Vector Direction',(0.,0.,1.)) ;
#256=DIRECTION('Axis2P3D Direction',(1.,0.,0.)) ;
#257=DIRECTION('Axis2P3D XDirection',(0.,1.,0.)) ;
#279=DIRECTION('Axis2P3D Direction',(1.,0.,0.)) ;
#280=DIRECTION('Axis2P3D XDirection',(0.,1.,0.)) ;
#8=PRODUCT_RELATED_PRODUCT_CATEGORY('part',$,(#5)) ;
#7=PRODUCT_CATEGORY('part','specification') ;
#29=STYLED_ITEM(' ',(#28),#21) ;
#28=PRESENTATION_STYLE_ASSIGNMENT((#27)) ;
#77=PRESENTATION_STYLE_ASSIGNMENT((#76)) ;
#101=PRESENTATION_STYLE_ASSIGNMENT((#100)) ;
#148=PRESENTATION_STYLE_ASSIGNMENT((#147)) ;
#186=PRESENTATION_STYLE_ASSIGNMENT((#185)) ;
#224=PRESENTATION_STYLE_ASSIGNMENT((#223)) ;
#253=PRESENTATION_STYLE_ASSIGNMENT((#252)) ;
#276=PRESENTATION_STYLE_ASSIGNMENT((#275)) ;
#299=PRESENTATION_STYLE_ASSIGNMENT((#298)) ;
#27=SURFACE_STYLE_USAGE(.BOTH.,#26) ;
#76=SURFACE_STYLE_USAGE(.BOTH.,#75) ;
#100=SURFACE_STYLE_USAGE(.BOTH.,#99) ;
#147=SURFACE_STYLE_USAGE(.BOTH.,#146) ;
#185=SURFACE_STYLE_USAGE(.BOTH.,#184) ;
#223=SURFACE_STYLE_USAGE(.BOTH.,#222) ;
#252=SURFACE_STYLE_USAGE(.BOTH.,#251) ;
#275=SURFACE_STYLE_USAGE(.BOTH.,#274) ;
#298=SURFACE_STYLE_USAGE(.BOTH.,#297) ;
#26=SURFACE_SIDE_STYLE(' ',(#25)) ;
#75=SURFACE_SIDE_STYLE(' ',(#74)) ;
#99=SURFACE_SIDE_STYLE(' ',(#98)) ;
#146=SURFACE_SIDE_STYLE(' ',(#145)) ;
#184=SURFACE_SIDE_STYLE(' ',(#183)) ;
#222=SURFACE_SIDE_STYLE(' ',(#221)) ;
#251=SURFACE_SIDE_STYLE(' ',(#250)) ;
#274=SURFACE_SIDE_STYLE(' ',(#273)) ;
#297=SURFACE_SIDE_STYLE(' ',(#296)) ;
#25=SURFACE_STYLE_FILL_AREA(#24) ;
#74=SURFACE_STYLE_FILL_AREA(#73) ;
#98=SURFACE_STYLE_FILL_AREA(#97) ;
#145=SURFACE_STYLE_FILL_AREA(#144) ;
#183=SURFACE_STYLE_FILL_AREA(#182) ;
#221=SURFACE_STYLE_FILL_AREA(#220) ;
#250=SURFACE_STYLE_FILL_AREA(#249) ;
#273=SURFACE_STYLE_FILL_AREA(#272) ;
#296=SURFACE_STYLE_FILL_AREA(#295) ;
#24=FILL_AREA_STYLE(' ',(#23)) ;
#73=FILL_AREA_STYLE(' ',(#72)) ;
#97=FILL_AREA_STYLE(' ',(#96)) ;
#144=FILL_AREA_STYLE(' ',(#143)) ;
#182=FILL_AREA_STYLE(' ',(#181)) ;
#220=FILL_AREA_STYLE(' ',(#219)) ;
#249=FILL_AREA_STYLE(' ',(#248)) ;
#272=FILL_AREA_STYLE(' ',(#271)) ;
#295=FILL_AREA_STYLE(' ',(#294)) ;
#23=FILL_AREA_STYLE_COLOUR(' ',#22) ;
#72=FILL_AREA_STYLE_COLOUR(' ',#71) ;
#96=FILL_AREA_STYLE_COLOUR(' ',#71) ;
#143=FILL_AREA_STYLE_COLOUR(' ',#71) ;
#181=FILL_AREA_STYLE_COLOUR(' ',#71) ;
#219=FILL_AREA_STYLE_COLOUR(' ',#71) ;
#248=FILL_AREA_STYLE_COLOUR(' ',#71) ;
#271=FILL_AREA_STYLE_COLOUR(' ',#71) ;
#294=FILL_AREA_STYLE_COLOUR(' ',#71) ;
#38=VECTOR('Line Direction',#37,1.) ;
#54=VECTOR('Line Direction',#53,1.) ;
#119=VECTOR('Line Direction',#118,1.) ;
#133=VECTOR('Line Direction',#132,1.) ;
#157=VECTOR('Line Direction',#156,1.) ;
#164=VECTOR('Line Direction',#163,1.) ;
#171=VECTOR('Line Direction',#170,1.) ;
#195=VECTOR('Line Direction',#194,1.) ;
#202=VECTOR('Line Direction',#201,1.) ;
#209=VECTOR('Line Direction',#208,1.) ;
#233=VECTOR('Line Direction',#232,1.) ;
#238=VECTOR('Line Direction',#237,1.) ;
#15=UNCERTAINTY_MEASURE_WITH_UNIT(LENGTH_MEASURE(0.005),#12,'distance_accuracy_value','CONFUSED CURVE UNCERTAINTY') ;
#302=SHAPE_REPRESENTATION_RELATIONSHIP(' ',' ',#19,#301) ;
#65=ORIENTED_EDGE('',*,*,#44,.F.) ;
#66=ORIENTED_EDGE('',*,*,#51,.T.) ;
#67=ORIENTED_EDGE('',*,*,#58,.T.) ;
#68=ORIENTED_EDGE('',*,*,#63,.F.) ;
#90=ORIENTED_EDGE('',*,*,#58,.F.) ;
#91=ORIENTED_EDGE('',*,*,#83,.T.) ;
#92=ORIENTED_EDGE('',*,*,#44,.T.) ;
#93=ORIENTED_EDGE('',*,*,#88,.F.) ;
#137=ORIENTED_EDGE('',*,*,#116,.T.) ;
#138=ORIENTED_EDGE('',*,*,#123,.F.) ;
#139=ORIENTED_EDGE('',*,*,#130,.F.) ;
#140=ORIENTED_EDGE('',*,*,#135,.T.) ;
#175=ORIENTED_EDGE('',*,*,#161,.T.) ;
#176=ORIENTED_EDGE('',*,*,#135,.F.) ;
#177=ORIENTED_EDGE('',*,*,#168,.F.) ;
#178=ORIENTED_EDGE('',*,*,#173,.T.) ;
#213=ORIENTED_EDGE('',*,*,#199,.T.) ;
#214=ORIENTED_EDGE('',*,*,#173,.F.) ;
#215=ORIENTED_EDGE('',*,*,#206,.F.) ;
#216=ORIENTED_EDGE('',*,*,#211,.T.) ;
#242=ORIENTED_EDGE('',*,*,#235,.T.) ;
#243=ORIENTED_EDGE('',*,*,#211,.F.) ;
#244=ORIENTED_EDGE('',*,*,#240,.F.) ;
#245=ORIENTED_EDGE('',*,*,#123,.T.) ;
#261=ORIENTED_EDGE('',*,*,#83,.F.) ;
#262=ORIENTED_EDGE('',*,*,#51,.F.) ;
#265=ORIENTED_EDGE('',*,*,#240,.T.) ;
#266=ORIENTED_EDGE('',*,*,#206,.T.) ;
#267=ORIENTED_EDGE('',*,*,#168,.T.) ;
#268=ORIENTED_EDGE('',*,*,#130,.T.) ;
#284=ORIENTED_EDGE('',*,*,#63,.T.) ;
#285=ORIENTED_EDGE('',*,*,#88,.T.) ;
#288=ORIENTED_EDGE('',*,*,#116,.F.) ;
#289=ORIENTED_EDGE('',*,*,#161,.F.) ;
#290=ORIENTED_EDGE('',*,*,#199,.F.) ;
#291=ORIENTED_EDGE('',*,*,#235,.F.) ;
#269=FACE_BOUND('',#264,.T.) ;
#292=FACE_BOUND('',#287,.T.) ;
#30=CLOSED_SHELL('Closed Shell',(#70,#95,#142,#180,#218,#247,#270,#293)) ;
#301=ADVANCED_BREP_SHAPE_REPRESENTATION('NONE',(#21),#16) ;
#70=ADVANCED_FACE('Corps principal',(#69),#35,.T.) ;
#95=ADVANCED_FACE('Corps principal',(#94),#35,.T.) ;
#142=ADVANCED_FACE('Corps principal',(#141),#107,.F.) ;
#180=ADVANCED_FACE('Corps principal',(#179),#154,.T.) ;
#218=ADVANCED_FACE('Corps principal',(#217),#192,.T.) ;
#247=ADVANCED_FACE('Corps principal',(#246),#230,.T.) ;
#270=ADVANCED_FACE('Corps principal',(#263,#269),#259,.F.) ;
#293=ADVANCED_FACE('Corps principal',(#286,#292),#282,.T.) ;
#4=APPLICATION_PROTOCOL_DEFINITION('international standard','automotive_design',2001,#1) ;
#21=MANIFOLD_SOLID_BREP('Corps principal',#30) ;
#48=CIRCLE('generated circle',#47,30.) ;
#62=CIRCLE('generated circle',#61,30.) ;
#82=CIRCLE('generated circle',#81,30.) ;
#87=CIRCLE('generated circle',#86,30.) ;
#111=CIRCLE('generated circle',#110,11.25) ;
#127=CIRCLE('generated circle',#126,11.25) ;
#22=COLOUR_RGB('Colour',0.823529411765,0.823529411765,1.) ;
#78=OVER_RIDING_STYLED_ITEM(' ',(#77),#70,#29) ;
#102=OVER_RIDING_STYLED_ITEM(' ',(#101),#95,#29) ;
#149=OVER_RIDING_STYLED_ITEM(' ',(#148),#142,#29) ;
#187=OVER_RIDING_STYLED_ITEM(' ',(#186),#180,#29) ;
#225=OVER_RIDING_STYLED_ITEM(' ',(#224),#218,#29) ;
#254=OVER_RIDING_STYLED_ITEM(' ',(#253),#247,#29) ;
#277=OVER_RIDING_STYLED_ITEM(' ',(#276),#270,#29) ;
#300=OVER_RIDING_STYLED_ITEM(' ',(#299),#293,#29) ;
#35=CYLINDRICAL_SURFACE('generated cylinder',#34,30.) ;
#107=CYLINDRICAL_SURFACE('generated cylinder',#106,11.25) ;
#71=DRAUGHTING_PRE_DEFINED_COLOUR('yellow') ;
#44=EDGE_CURVE('',#41,#43,#39,.T.) ;
#51=EDGE_CURVE('',#41,#50,#48,.T.) ;
#58=EDGE_CURVE('',#50,#57,#55,.T.) ;
#63=EDGE_CURVE('',#43,#57,#62,.T.) ;
#83=EDGE_CURVE('',#50,#41,#82,.T.) ;
#88=EDGE_CURVE('',#57,#43,#87,.T.) ;
#116=EDGE_CURVE('',#113,#115,#111,.T.) ;
#123=EDGE_CURVE('',#122,#115,#120,.T.) ;
#130=EDGE_CURVE('',#129,#122,#127,.T.) ;
#135=EDGE_CURVE('',#129,#113,#134,.T.) ;
#161=EDGE_CURVE('',#160,#113,#158,.F.) ;
#168=EDGE_CURVE('',#167,#129,#165,.F.) ;
#173=EDGE_CURVE('',#167,#160,#172,.T.) ;
#199=EDGE_CURVE('',#198,#160,#196,.F.) ;
#206=EDGE_CURVE('',#205,#167,#203,.F.) ;
#211=EDGE_CURVE('',#205,#198,#210,.T.) ;
#235=EDGE_CURVE('',#115,#198,#234,.F.) ;
#240=EDGE_CURVE('',#122,#205,#239,.F.) ;
#64=EDGE_LOOP('',(#65,#66,#67,#68)) ;
#89=EDGE_LOOP('',(#90,#91,#92,#93)) ;
#136=EDGE_LOOP('',(#137,#138,#139,#140)) ;
#174=EDGE_LOOP('',(#175,#176,#177,#178)) ;
#212=EDGE_LOOP('',(#213,#214,#215,#216)) ;
#241=EDGE_LOOP('',(#242,#243,#244,#245)) ;
#260=EDGE_LOOP('',(#261,#262)) ;
#264=EDGE_LOOP('',(#265,#266,#267,#268)) ;
#283=EDGE_LOOP('',(#284,#285)) ;
#287=EDGE_LOOP('',(#288,#289,#290,#291)) ;
#69=FACE_OUTER_BOUND('',#64,.T.) ;
#94=FACE_OUTER_BOUND('',#89,.T.) ;
#141=FACE_OUTER_BOUND('',#136,.T.) ;
#179=FACE_OUTER_BOUND('',#174,.T.) ;
#217=FACE_OUTER_BOUND('',#212,.T.) ;
#246=FACE_OUTER_BOUND('',#241,.T.) ;
#263=FACE_OUTER_BOUND('',#260,.T.) ;
#286=FACE_OUTER_BOUND('',#283,.T.) ;
#39=LINE('Line',#36,#38) ;
#55=LINE('Line',#52,#54) ;
#120=LINE('Line',#117,#119) ;
#134=LINE('Line',#131,#133) ;
#158=LINE('Line',#155,#157) ;
#165=LINE('Line',#162,#164) ;
#172=LINE('Line',#169,#171) ;
#196=LINE('Line',#193,#195) ;
#203=LINE('Line',#200,#202) ;
#210=LINE('Line',#207,#209) ;
#234=LINE('Line',#231,#233) ;
#239=LINE('Line',#236,#238) ;
#154=PLANE('',#153) ;
#192=PLANE('',#191) ;
#230=PLANE('',#229) ;
#259=PLANE('',#258) ;
#282=PLANE('',#281) ;
#9=PRODUCT_CATEGORY_RELATIONSHIP(' ',' ',#7,#8) ;
#6=PRODUCT_DEFINITION_FORMATION_WITH_SPECIFIED_SOURCE('',' ',#5,.NOT_KNOWN.) ;
#20=SHAPE_DEFINITION_REPRESENTATION(#11,#19) ;
#41=VERTEX_POINT('',#40) ;
#43=VERTEX_POINT('',#42) ;
#50=VERTEX_POINT('',#49) ;
#57=VERTEX_POINT('',#56) ;
#113=VERTEX_POINT('',#112) ;
#115=VERTEX_POINT('',#114) ;
#122=VERTEX_POINT('',#121) ;
#129=VERTEX_POINT('',#128) ;
#160=VERTEX_POINT('',#159) ;
#167=VERTEX_POINT('',#166) ;
#198=VERTEX_POINT('',#197) ;
#205=VERTEX_POINT('',#204) ;
#12=(LENGTH_UNIT()NAMED_UNIT(*)SI_UNIT(.MILLI.,.METRE.)) ;
#13=(NAMED_UNIT(*)PLANE_ANGLE_UNIT()SI_UNIT($,.RADIAN.)) ;
#14=(NAMED_UNIT(*)SI_UNIT($,.STERADIAN.)SOLID_ANGLE_UNIT()) ;
#16=(GEOMETRIC_REPRESENTATION_CONTEXT(3)GLOBAL_UNCERTAINTY_ASSIGNED_CONTEXT((#15))GLOBAL_UNIT_ASSIGNED_CONTEXT((#12,#13,#14))REPRESENTATION_CONTEXT(' ',' ')) ;
ENDSEC;
END-ISO-10303-21;
