ISO-10303-21;
HEADER;
FILE_DESCRIPTION(('CATIA V5 STEP Exchange','CAx-IF Rec.Pracs.--- Model Styling and Organization---1.2---2011-12-15'),'2;1');

FILE_NAME('\\\\datfrlgs003.limousin.fr.grpleg.com\\it_referentiel\\transcad\\sortie\\fabien.fantini@legrand.fr\\255\\LBI9.stp','2014-04-11T09:16:16+00:00',('none'),('none'),'Unofficial Packaging Version','CATIA V5 STEP AP214 Edition 3','none');

FILE_SCHEMA(('AUTOMOTIVE_DESIGN { 1 0 10303 214 3 1 1 1 }'));

ENDSEC;
DATA;
#5=PRODUCT('LBI9','','',(#2)) ;
#2=PRODUCT_CONTEXT(' ',#1,'mechanical') ;
#1=APPLICATION_CONTEXT('automotive design') ;
#10=PRODUCT_DEFINITION('',' ',#6,#3) ;
#3=PRODUCT_DEFINITION_CONTEXT('part definition',#1,' ') ;
#11=PRODUCT_DEFINITION_SHAPE(' ',' ',#10) ;
#511=MECHANICAL_DESIGN_GEOMETRIC_PRESENTATION_REPRESENTATION(' ',(#29),#16) ;
#19=SHAPE_REPRESENTATION(' ',(#18),#16) ;
#18=AXIS2_PLACEMENT_3D(' ',#17,$,$) ;
#34=AXIS2_PLACEMENT_3D('Plane Axis2P3D',#31,#32,#33) ;
#74=AXIS2_PLACEMENT_3D('Plane Axis2P3D',#71,#72,#73) ;
#139=AXIS2_PLACEMENT_3D('Plane Axis2P3D',#136,#137,#138) ;
#170=AXIS2_PLACEMENT_3D('Plane Axis2P3D',#167,#168,#169) ;
#226=AXIS2_PLACEMENT_3D('Plane Axis2P3D',#223,#224,#225) ;
#238=AXIS2_PLACEMENT_3D('Plane Axis2P3D',#235,#236,#237) ;
#250=AXIS2_PLACEMENT_3D('Plane Axis2P3D',#247,#248,#249) ;
#281=AXIS2_PLACEMENT_3D('Plane Axis2P3D',#278,#279,#280) ;
#312=AXIS2_PLACEMENT_3D('Plane Axis2P3D',#309,#310,#311) ;
#343=AXIS2_PLACEMENT_3D('Plane Axis2P3D',#340,#341,#342) ;
#365=AXIS2_PLACEMENT_3D('Plane Axis2P3D',#362,#363,#364) ;
#378=AXIS2_PLACEMENT_3D('Plane Axis2P3D',#375,#376,#377) ;
#417=AXIS2_PLACEMENT_3D('Plane Axis2P3D',#414,#415,#416) ;
#448=AXIS2_PLACEMENT_3D('Plane Axis2P3D',#445,#446,#447) ;
#17=CARTESIAN_POINT(' ',(0.,0.,0.)) ;
#31=CARTESIAN_POINT('Axis2P3D Location',(-5.2875,18.1625,0.)) ;
#36=CARTESIAN_POINT('Line Origine',(-5.2875,18.1625,0.)) ;
#40=CARTESIAN_POINT('Vertex',(-5.2875,18.1625,-0.6675)) ;
#42=CARTESIAN_POINT('Vertex',(-5.2875,18.1625,0.6675)) ;
#45=CARTESIAN_POINT('Line Origine',(-5.2875,3.5527136788E-015,-0.6675)) ;
#49=CARTESIAN_POINT('Vertex',(-5.2875,-18.1625,-0.6675)) ;
#52=CARTESIAN_POINT('Line Origine',(-5.2875,-18.1625,0.)) ;
#56=CARTESIAN_POINT('Vertex',(-5.2875,-18.1625,0.6675)) ;
#59=CARTESIAN_POINT('Line Origine',(-5.2875,3.5527136788E-015,0.6675)) ;
#71=CARTESIAN_POINT('Axis2P3D Location',(5.2875,-18.1625,0.)) ;
#76=CARTESIAN_POINT('Line Origine',(0.,-18.1625,-0.6675)) ;
#80=CARTESIAN_POINT('Vertex',(5.2875,-18.1625,-0.6675)) ;
#83=CARTESIAN_POINT('Line Origine',(5.2875,-18.1625,0.)) ;
#87=CARTESIAN_POINT('Vertex',(5.2875,-18.1625,0.6675)) ;
#90=CARTESIAN_POINT('Line Origine',(0.,-18.1625,0.6675)) ;
#101=CARTESIAN_POINT('Line Origine',(-3.05,-18.1625,-6.10622663544E-016)) ;
#105=CARTESIAN_POINT('Vertex',(-3.05,-18.1625,0.2875)) ;
#107=CARTESIAN_POINT('Vertex',(-3.05,-18.1625,-0.2875)) ;
#110=CARTESIAN_POINT('Line Origine',(0.,-18.1625,0.2875)) ;
#114=CARTESIAN_POINT('Vertex',(3.05,-18.1625,0.2875)) ;
#117=CARTESIAN_POINT('Line Origine',(3.05,-18.1625,-6.10622663544E-016)) ;
#121=CARTESIAN_POINT('Vertex',(3.05,-18.1625,-0.2875)) ;
#124=CARTESIAN_POINT('Line Origine',(0.,-18.1625,-0.2875)) ;
#136=CARTESIAN_POINT('Axis2P3D Location',(5.2875,-18.1625,0.)) ;
#141=CARTESIAN_POINT('Line Origine',(5.2875,0.,-0.6675)) ;
#145=CARTESIAN_POINT('Vertex',(5.2875,18.1625,-0.6675)) ;
#148=CARTESIAN_POINT('Line Origine',(5.2875,18.1625,0.)) ;
#152=CARTESIAN_POINT('Vertex',(5.2875,18.1625,0.6675)) ;
#155=CARTESIAN_POINT('Line Origine',(5.2875,0.,0.6675)) ;
#167=CARTESIAN_POINT('Axis2P3D Location',(-5.2875,18.1625,0.)) ;
#172=CARTESIAN_POINT('Line Origine',(-8.881784197E-016,18.1625,-0.6675)) ;
#177=CARTESIAN_POINT('Line Origine',(-8.881784197E-016,18.1625,0.6675)) ;
#188=CARTESIAN_POINT('Line Origine',(4.4408920985E-016,18.1625,0.2875)) ;
#192=CARTESIAN_POINT('Vertex',(-3.05,18.1625,0.2875)) ;
#194=CARTESIAN_POINT('Vertex',(3.05,18.1625,0.2875)) ;
#197=CARTESIAN_POINT('Line Origine',(-3.05,18.1625,-6.10622663544E-016)) ;
#201=CARTESIAN_POINT('Vertex',(-3.05,18.1625,-0.2875)) ;
#204=CARTESIAN_POINT('Line Origine',(4.4408920985E-016,18.1625,-0.2875)) ;
#208=CARTESIAN_POINT('Vertex',(3.05,18.1625,-0.2875)) ;
#211=CARTESIAN_POINT('Line Origine',(3.05,18.1625,-6.10622663544E-016)) ;
#223=CARTESIAN_POINT('Axis2P3D Location',(0.,0.,-0.6675)) ;
#235=CARTESIAN_POINT('Axis2P3D Location',(0.,0.,0.6675)) ;
#247=CARTESIAN_POINT('Axis2P3D Location',(0.,18.275,-0.2875)) ;
#252=CARTESIAN_POINT('Line Origine',(-3.05,18.21875,-0.2875)) ;
#256=CARTESIAN_POINT('Vertex',(-3.05,18.275,-0.2875)) ;
#259=CARTESIAN_POINT('Line Origine',(0.,18.275,-0.2875)) ;
#263=CARTESIAN_POINT('Vertex',(3.05,18.275,-0.2875)) ;
#266=CARTESIAN_POINT('Line Origine',(3.05,18.21875,-0.2875)) ;
#278=CARTESIAN_POINT('Axis2P3D Location',(0.,18.5625,-1.01252339846E-012)) ;
#283=CARTESIAN_POINT('Line Origine',(-3.05,18.41875,-0.143750000001)) ;
#287=CARTESIAN_POINT('Vertex',(-3.05,18.5625,-1.01252339846E-012)) ;
#290=CARTESIAN_POINT('Line Origine',(0.,18.5625,-1.01252339846E-012)) ;
#294=CARTESIAN_POINT('Vertex',(3.05,18.5625,-1.01252339846E-012)) ;
#297=CARTESIAN_POINT('Line Origine',(3.05,18.41875,-0.143750000001)) ;
#309=CARTESIAN_POINT('Axis2P3D Location',(0.,18.275,0.2875)) ;
#314=CARTESIAN_POINT('Line Origine',(-3.05,18.4187497646,0.143750235416)) ;
#318=CARTESIAN_POINT('Vertex',(-3.05,18.275,0.2875)) ;
#321=CARTESIAN_POINT('Line Origine',(0.,18.275,0.2875)) ;
#325=CARTESIAN_POINT('Vertex',(3.05,18.275,0.2875)) ;
#328=CARTESIAN_POINT('Line Origine',(3.05,18.4187497646,0.143750235416)) ;
#340=CARTESIAN_POINT('Axis2P3D Location',(0.,18.1625,0.2875)) ;
#345=CARTESIAN_POINT('Line Origine',(-3.05,18.21875,0.2875)) ;
#350=CARTESIAN_POINT('Line Origine',(3.05,18.21875,0.2875)) ;
#362=CARTESIAN_POINT('Axis2P3D Location',(-3.05,0.,0.)) ;
#375=CARTESIAN_POINT('Axis2P3D Location',(3.05,0.,0.)) ;
#388=CARTESIAN_POINT('Line Origine',(3.05,-18.21875,-0.2875)) ;
#392=CARTESIAN_POINT('Vertex',(3.05,-18.275,-0.2875)) ;
#395=CARTESIAN_POINT('Line Origine',(0.,-18.275,-0.2875)) ;
#399=CARTESIAN_POINT('Vertex',(-3.05,-18.275,-0.2875)) ;
#402=CARTESIAN_POINT('Line Origine',(-3.05,-18.21875,-0.2875)) ;
#414=CARTESIAN_POINT('Axis2P3D Location',(0.,-18.5625,-1.01252339846E-012)) ;
#419=CARTESIAN_POINT('Line Origine',(3.05,-18.41875,-0.143750000001)) ;
#423=CARTESIAN_POINT('Vertex',(3.05,-18.5625,-1.01252339846E-012)) ;
#426=CARTESIAN_POINT('Line Origine',(0.,-18.5625,-1.01252339846E-012)) ;
#430=CARTESIAN_POINT('Vertex',(-3.05,-18.5625,-1.01252339846E-012)) ;
#433=CARTESIAN_POINT('Line Origine',(-3.05,-18.41875,-0.143750000001)) ;
#445=CARTESIAN_POINT('Axis2P3D Location',(0.,-18.275,0.2875)) ;
#450=CARTESIAN_POINT('Line Origine',(3.05,-18.4187497646,0.143750235416)) ;
#454=CARTESIAN_POINT('Vertex',(3.05,-18.275,0.2875)) ;
#457=CARTESIAN_POINT('Line Origine',(0.,-18.275,0.2875)) ;
#461=CARTESIAN_POINT('Vertex',(-3.05,-18.275,0.2875)) ;
#464=CARTESIAN_POINT('Line Origine',(-3.05,-18.4187497646,0.143750235416)) ;
#476=CARTESIAN_POINT('Line Origine',(3.05,-18.21875,0.2875)) ;
#481=CARTESIAN_POINT('Line Origine',(-3.05,-18.21875,0.2875)) ;
#32=DIRECTION('Axis2P3D Direction',(-1.,0.,0.)) ;
#33=DIRECTION('Axis2P3D XDirection',(0.,-1.,0.)) ;
#37=DIRECTION('Vector Direction',(0.,0.,1.)) ;
#46=DIRECTION('Vector Direction',(0.,-1.,0.)) ;
#53=DIRECTION('Vector Direction',(0.,0.,1.)) ;
#60=DIRECTION('Vector Direction',(0.,-1.,0.)) ;
#72=DIRECTION('Axis2P3D Direction',(0.,1.,-0.)) ;
#73=DIRECTION('Axis2P3D XDirection',(-1.,0.,0.)) ;
#77=DIRECTION('Vector Direction',(-1.,0.,0.)) ;
#84=DIRECTION('Vector Direction',(0.,0.,1.)) ;
#91=DIRECTION('Vector Direction',(-1.,0.,0.)) ;
#102=DIRECTION('Vector Direction',(0.,0.,1.)) ;
#111=DIRECTION('Vector Direction',(1.,0.,0.)) ;
#118=DIRECTION('Vector Direction',(0.,0.,1.)) ;
#125=DIRECTION('Vector Direction',(1.,0.,0.)) ;
#137=DIRECTION('Axis2P3D Direction',(1.,0.,0.)) ;
#138=DIRECTION('Axis2P3D XDirection',(0.,1.,0.)) ;
#142=DIRECTION('Vector Direction',(0.,1.,0.)) ;
#149=DIRECTION('Vector Direction',(0.,0.,1.)) ;
#156=DIRECTION('Vector Direction',(0.,1.,0.)) ;
#168=DIRECTION('Axis2P3D Direction',(0.,-1.,0.)) ;
#169=DIRECTION('Axis2P3D XDirection',(1.,0.,0.)) ;
#173=DIRECTION('Vector Direction',(1.,0.,0.)) ;
#178=DIRECTION('Vector Direction',(1.,0.,0.)) ;
#189=DIRECTION('Vector Direction',(1.,0.,0.)) ;
#198=DIRECTION('Vector Direction',(0.,0.,1.)) ;
#205=DIRECTION('Vector Direction',(1.,0.,0.)) ;
#212=DIRECTION('Vector Direction',(0.,0.,1.)) ;
#224=DIRECTION('Axis2P3D Direction',(0.,0.,1.)) ;
#225=DIRECTION('Axis2P3D XDirection',(1.,0.,0.)) ;
#236=DIRECTION('Axis2P3D Direction',(0.,0.,1.)) ;
#237=DIRECTION('Axis2P3D XDirection',(1.,0.,0.)) ;
#248=DIRECTION('Axis2P3D Direction',(-0.,0.,1.)) ;
#249=DIRECTION('Axis2P3D XDirection',(0.,-1.,0.)) ;
#253=DIRECTION('Vector Direction',(0.,-1.,0.)) ;
#260=DIRECTION('Vector Direction',(1.,0.,0.)) ;
#267=DIRECTION('Vector Direction',(0.,-1.,0.)) ;
#279=DIRECTION('Axis2P3D Direction',(0.,-0.707106781187,0.707106781187)) ;
#280=DIRECTION('Axis2P3D XDirection',(-0.,-0.707106781187,-0.707106781187)) ;
#284=DIRECTION('Vector Direction',(0.,-0.707106781187,-0.707106781187)) ;
#291=DIRECTION('Vector Direction',(1.,0.,0.)) ;
#298=DIRECTION('Vector Direction',(0.,-0.707106781187,-0.707106781187)) ;
#310=DIRECTION('Axis2P3D Direction',(0.,-0.707106781187,-0.707106781187)) ;
#311=DIRECTION('Axis2P3D XDirection',(0.,0.707106781187,-0.707106781187)) ;
#315=DIRECTION('Vector Direction',(0.,0.707106781187,-0.707106781187)) ;
#322=DIRECTION('Vector Direction',(1.,0.,0.)) ;
#329=DIRECTION('Vector Direction',(0.,0.707106781187,-0.707106781187)) ;
#341=DIRECTION('Axis2P3D Direction',(0.,0.,-1.)) ;
#342=DIRECTION('Axis2P3D XDirection',(0.,1.,0.)) ;
#346=DIRECTION('Vector Direction',(0.,1.,0.)) ;
#351=DIRECTION('Vector Direction',(0.,1.,0.)) ;
#363=DIRECTION('Axis2P3D Direction',(1.,0.,0.)) ;
#364=DIRECTION('Axis2P3D XDirection',(0.,1.,0.)) ;
#376=DIRECTION('Axis2P3D Direction',(1.,0.,0.)) ;
#377=DIRECTION('Axis2P3D XDirection',(0.,1.,0.)) ;
#389=DIRECTION('Vector Direction',(0.,-1.,0.)) ;
#396=DIRECTION('Vector Direction',(1.,0.,0.)) ;
#403=DIRECTION('Vector Direction',(0.,-1.,0.)) ;
#415=DIRECTION('Axis2P3D Direction',(0.,-0.707106781187,-0.707106781187)) ;
#416=DIRECTION('Axis2P3D XDirection',(-0.,0.707106781187,-0.707106781187)) ;
#420=DIRECTION('Vector Direction',(0.,0.707106781187,-0.707106781187)) ;
#427=DIRECTION('Vector Direction',(1.,0.,0.)) ;
#434=DIRECTION('Vector Direction',(0.,0.707106781187,-0.707106781187)) ;
#446=DIRECTION('Axis2P3D Direction',(0.,-0.707106781187,0.707106781187)) ;
#447=DIRECTION('Axis2P3D XDirection',(0.,-0.707106781187,-0.707106781187)) ;
#451=DIRECTION('Vector Direction',(0.,-0.707106781187,-0.707106781187)) ;
#458=DIRECTION('Vector Direction',(1.,0.,0.)) ;
#465=DIRECTION('Vector Direction',(0.,-0.707106781187,-0.707106781187)) ;
#477=DIRECTION('Vector Direction',(0.,1.,0.)) ;
#482=DIRECTION('Vector Direction',(0.,1.,0.)) ;
#8=PRODUCT_RELATED_PRODUCT_CATEGORY('part',$,(#5)) ;
#7=PRODUCT_CATEGORY('part','specification') ;
#29=STYLED_ITEM(' ',(#28),#21) ;
#28=PRESENTATION_STYLE_ASSIGNMENT((#27)) ;
#27=SURFACE_STYLE_USAGE(.BOTH.,#26) ;
#26=SURFACE_SIDE_STYLE(' ',(#25)) ;
#25=SURFACE_STYLE_FILL_AREA(#24) ;
#24=FILL_AREA_STYLE(' ',(#23)) ;
#23=FILL_AREA_STYLE_COLOUR(' ',#22) ;
#38=VECTOR('Line Direction',#37,1.) ;
#47=VECTOR('Line Direction',#46,1.) ;
#54=VECTOR('Line Direction',#53,1.) ;
#61=VECTOR('Line Direction',#60,1.) ;
#78=VECTOR('Line Direction',#77,1.) ;
#85=VECTOR('Line Direction',#84,1.) ;
#92=VECTOR('Line Direction',#91,1.) ;
#103=VECTOR('Line Direction',#102,1.) ;
#112=VECTOR('Line Direction',#111,1.) ;
#119=VECTOR('Line Direction',#118,1.) ;
#126=VECTOR('Line Direction',#125,1.) ;
#143=VECTOR('Line Direction',#142,1.) ;
#150=VECTOR('Line Direction',#149,1.) ;
#157=VECTOR('Line Direction',#156,1.) ;
#174=VECTOR('Line Direction',#173,1.) ;
#179=VECTOR('Line Direction',#178,1.) ;
#190=VECTOR('Line Direction',#189,1.) ;
#199=VECTOR('Line Direction',#198,1.) ;
#206=VECTOR('Line Direction',#205,1.) ;
#213=VECTOR('Line Direction',#212,1.) ;
#254=VECTOR('Line Direction',#253,1.) ;
#261=VECTOR('Line Direction',#260,1.) ;
#268=VECTOR('Line Direction',#267,1.) ;
#285=VECTOR('Line Direction',#284,1.) ;
#292=VECTOR('Line Direction',#291,1.) ;
#299=VECTOR('Line Direction',#298,1.) ;
#316=VECTOR('Line Direction',#315,1.) ;
#323=VECTOR('Line Direction',#322,1.) ;
#330=VECTOR('Line Direction',#329,1.) ;
#347=VECTOR('Line Direction',#346,1.) ;
#352=VECTOR('Line Direction',#351,1.) ;
#390=VECTOR('Line Direction',#389,1.) ;
#397=VECTOR('Line Direction',#396,1.) ;
#404=VECTOR('Line Direction',#403,1.) ;
#421=VECTOR('Line Direction',#420,1.) ;
#428=VECTOR('Line Direction',#427,1.) ;
#435=VECTOR('Line Direction',#434,1.) ;
#452=VECTOR('Line Direction',#451,1.) ;
#459=VECTOR('Line Direction',#458,1.) ;
#466=VECTOR('Line Direction',#465,1.) ;
#478=VECTOR('Line Direction',#477,1.) ;
#483=VECTOR('Line Direction',#482,1.) ;
#15=UNCERTAINTY_MEASURE_WITH_UNIT(LENGTH_MEASURE(0.005),#12,'distance_accuracy_value','CONFUSED CURVE UNCERTAINTY') ;
#510=SHAPE_REPRESENTATION_RELATIONSHIP(' ',' ',#19,#509) ;
#65=ORIENTED_EDGE('',*,*,#44,.F.) ;
#66=ORIENTED_EDGE('',*,*,#51,.T.) ;
#67=ORIENTED_EDGE('',*,*,#58,.T.) ;
#68=ORIENTED_EDGE('',*,*,#63,.F.) ;
#96=ORIENTED_EDGE('',*,*,#58,.F.) ;
#97=ORIENTED_EDGE('',*,*,#82,.T.) ;
#98=ORIENTED_EDGE('',*,*,#89,.T.) ;
#99=ORIENTED_EDGE('',*,*,#94,.F.) ;
#130=ORIENTED_EDGE('',*,*,#109,.F.) ;
#131=ORIENTED_EDGE('',*,*,#116,.T.) ;
#132=ORIENTED_EDGE('',*,*,#123,.T.) ;
#133=ORIENTED_EDGE('',*,*,#128,.F.) ;
#161=ORIENTED_EDGE('',*,*,#89,.F.) ;
#162=ORIENTED_EDGE('',*,*,#147,.T.) ;
#163=ORIENTED_EDGE('',*,*,#154,.T.) ;
#164=ORIENTED_EDGE('',*,*,#159,.F.) ;
#183=ORIENTED_EDGE('',*,*,#154,.F.) ;
#184=ORIENTED_EDGE('',*,*,#176,.T.) ;
#185=ORIENTED_EDGE('',*,*,#44,.T.) ;
#186=ORIENTED_EDGE('',*,*,#181,.F.) ;
#217=ORIENTED_EDGE('',*,*,#196,.F.) ;
#218=ORIENTED_EDGE('',*,*,#203,.T.) ;
#219=ORIENTED_EDGE('',*,*,#210,.T.) ;
#220=ORIENTED_EDGE('',*,*,#215,.F.) ;
#229=ORIENTED_EDGE('',*,*,#176,.F.) ;
#230=ORIENTED_EDGE('',*,*,#147,.F.) ;
#231=ORIENTED_EDGE('',*,*,#82,.F.) ;
#232=ORIENTED_EDGE('',*,*,#51,.F.) ;
#241=ORIENTED_EDGE('',*,*,#63,.T.) ;
#242=ORIENTED_EDGE('',*,*,#94,.T.) ;
#243=ORIENTED_EDGE('',*,*,#159,.T.) ;
#244=ORIENTED_EDGE('',*,*,#181,.T.) ;
#272=ORIENTED_EDGE('',*,*,#210,.F.) ;
#273=ORIENTED_EDGE('',*,*,#258,.T.) ;
#274=ORIENTED_EDGE('',*,*,#265,.T.) ;
#275=ORIENTED_EDGE('',*,*,#270,.F.) ;
#303=ORIENTED_EDGE('',*,*,#265,.F.) ;
#304=ORIENTED_EDGE('',*,*,#289,.T.) ;
#305=ORIENTED_EDGE('',*,*,#296,.T.) ;
#306=ORIENTED_EDGE('',*,*,#301,.F.) ;
#334=ORIENTED_EDGE('',*,*,#296,.F.) ;
#335=ORIENTED_EDGE('',*,*,#320,.T.) ;
#336=ORIENTED_EDGE('',*,*,#327,.T.) ;
#337=ORIENTED_EDGE('',*,*,#332,.F.) ;
#356=ORIENTED_EDGE('',*,*,#327,.F.) ;
#357=ORIENTED_EDGE('',*,*,#349,.T.) ;
#358=ORIENTED_EDGE('',*,*,#196,.T.) ;
#359=ORIENTED_EDGE('',*,*,#354,.F.) ;
#368=ORIENTED_EDGE('',*,*,#349,.F.) ;
#369=ORIENTED_EDGE('',*,*,#320,.F.) ;
#370=ORIENTED_EDGE('',*,*,#289,.F.) ;
#371=ORIENTED_EDGE('',*,*,#258,.F.) ;
#372=ORIENTED_EDGE('',*,*,#203,.F.) ;
#381=ORIENTED_EDGE('',*,*,#215,.T.) ;
#382=ORIENTED_EDGE('',*,*,#270,.T.) ;
#383=ORIENTED_EDGE('',*,*,#301,.T.) ;
#384=ORIENTED_EDGE('',*,*,#332,.T.) ;
#385=ORIENTED_EDGE('',*,*,#354,.T.) ;
#408=ORIENTED_EDGE('',*,*,#394,.T.) ;
#409=ORIENTED_EDGE('',*,*,#401,.F.) ;
#410=ORIENTED_EDGE('',*,*,#406,.F.) ;
#411=ORIENTED_EDGE('',*,*,#128,.T.) ;
#439=ORIENTED_EDGE('',*,*,#425,.T.) ;
#440=ORIENTED_EDGE('',*,*,#432,.F.) ;
#441=ORIENTED_EDGE('',*,*,#437,.F.) ;
#442=ORIENTED_EDGE('',*,*,#401,.T.) ;
#470=ORIENTED_EDGE('',*,*,#456,.T.) ;
#471=ORIENTED_EDGE('',*,*,#463,.F.) ;
#472=ORIENTED_EDGE('',*,*,#468,.F.) ;
#473=ORIENTED_EDGE('',*,*,#432,.T.) ;
#487=ORIENTED_EDGE('',*,*,#480,.T.) ;
#488=ORIENTED_EDGE('',*,*,#116,.F.) ;
#489=ORIENTED_EDGE('',*,*,#485,.F.) ;
#490=ORIENTED_EDGE('',*,*,#463,.T.) ;
#494=ORIENTED_EDGE('',*,*,#109,.T.) ;
#495=ORIENTED_EDGE('',*,*,#406,.T.) ;
#496=ORIENTED_EDGE('',*,*,#437,.T.) ;
#497=ORIENTED_EDGE('',*,*,#468,.T.) ;
#498=ORIENTED_EDGE('',*,*,#485,.T.) ;
#502=ORIENTED_EDGE('',*,*,#480,.F.) ;
#503=ORIENTED_EDGE('',*,*,#456,.F.) ;
#504=ORIENTED_EDGE('',*,*,#425,.F.) ;
#505=ORIENTED_EDGE('',*,*,#394,.F.) ;
#506=ORIENTED_EDGE('',*,*,#123,.F.) ;
#134=FACE_BOUND('',#129,.T.) ;
#221=FACE_BOUND('',#216,.T.) ;
#30=CLOSED_SHELL('Closed Shell',(#70,#135,#166,#222,#234,#246,#277,#308,#339,#361,#374,#387,#413,#444,#475,#492,#500,#508)) ;
#509=ADVANCED_BREP_SHAPE_REPRESENTATION('NONE',(#21),#16) ;
#70=ADVANCED_FACE('Corps principal',(#69),#35,.T.) ;
#135=ADVANCED_FACE('Corps principal',(#100,#134),#75,.F.) ;
#166=ADVANCED_FACE('Corps principal',(#165),#140,.T.) ;
#222=ADVANCED_FACE('Corps principal',(#187,#221),#171,.F.) ;
#234=ADVANCED_FACE('Corps principal',(#233),#227,.F.) ;
#246=ADVANCED_FACE('Corps principal',(#245),#239,.T.) ;
#277=ADVANCED_FACE('Corps principal',(#276),#251,.F.) ;
#308=ADVANCED_FACE('Corps principal',(#307),#282,.F.) ;
#339=ADVANCED_FACE('Corps principal',(#338),#313,.F.) ;
#361=ADVANCED_FACE('Corps principal',(#360),#344,.F.) ;
#374=ADVANCED_FACE('Corps principal',(#373),#366,.F.) ;
#387=ADVANCED_FACE('Corps principal',(#386),#379,.T.) ;
#413=ADVANCED_FACE('Corps principal',(#412),#251,.F.) ;
#444=ADVANCED_FACE('Corps principal',(#443),#418,.T.) ;
#475=ADVANCED_FACE('Corps principal',(#474),#449,.T.) ;
#492=ADVANCED_FACE('Corps principal',(#491),#344,.F.) ;
#500=ADVANCED_FACE('Corps principal',(#499),#366,.F.) ;
#508=ADVANCED_FACE('Corps principal',(#507),#379,.T.) ;
#4=APPLICATION_PROTOCOL_DEFINITION('international standard','automotive_design',2001,#1) ;
#21=MANIFOLD_SOLID_BREP('Corps principal',#30) ;
#22=COLOUR_RGB('Colour',0.823529411765,0.823529411765,1.) ;
#44=EDGE_CURVE('',#41,#43,#39,.T.) ;
#51=EDGE_CURVE('',#41,#50,#48,.T.) ;
#58=EDGE_CURVE('',#50,#57,#55,.T.) ;
#63=EDGE_CURVE('',#43,#57,#62,.T.) ;
#82=EDGE_CURVE('',#50,#81,#79,.F.) ;
#89=EDGE_CURVE('',#81,#88,#86,.T.) ;
#94=EDGE_CURVE('',#57,#88,#93,.F.) ;
#109=EDGE_CURVE('',#106,#108,#104,.F.) ;
#116=EDGE_CURVE('',#106,#115,#113,.T.) ;
#123=EDGE_CURVE('',#115,#122,#120,.F.) ;
#128=EDGE_CURVE('',#108,#122,#127,.T.) ;
#147=EDGE_CURVE('',#81,#146,#144,.T.) ;
#154=EDGE_CURVE('',#146,#153,#151,.T.) ;
#159=EDGE_CURVE('',#88,#153,#158,.T.) ;
#176=EDGE_CURVE('',#146,#41,#175,.F.) ;
#181=EDGE_CURVE('',#153,#43,#180,.F.) ;
#196=EDGE_CURVE('',#193,#195,#191,.T.) ;
#203=EDGE_CURVE('',#193,#202,#200,.F.) ;
#210=EDGE_CURVE('',#202,#209,#207,.T.) ;
#215=EDGE_CURVE('',#195,#209,#214,.F.) ;
#258=EDGE_CURVE('',#202,#257,#255,.F.) ;
#265=EDGE_CURVE('',#257,#264,#262,.T.) ;
#270=EDGE_CURVE('',#209,#264,#269,.F.) ;
#289=EDGE_CURVE('',#257,#288,#286,.F.) ;
#296=EDGE_CURVE('',#288,#295,#293,.T.) ;
#301=EDGE_CURVE('',#264,#295,#300,.F.) ;
#320=EDGE_CURVE('',#288,#319,#317,.F.) ;
#327=EDGE_CURVE('',#319,#326,#324,.T.) ;
#332=EDGE_CURVE('',#295,#326,#331,.F.) ;
#349=EDGE_CURVE('',#319,#193,#348,.F.) ;
#354=EDGE_CURVE('',#326,#195,#353,.F.) ;
#394=EDGE_CURVE('',#122,#393,#391,.T.) ;
#401=EDGE_CURVE('',#400,#393,#398,.T.) ;
#406=EDGE_CURVE('',#108,#400,#405,.T.) ;
#425=EDGE_CURVE('',#393,#424,#422,.F.) ;
#432=EDGE_CURVE('',#431,#424,#429,.T.) ;
#437=EDGE_CURVE('',#400,#431,#436,.F.) ;
#456=EDGE_CURVE('',#424,#455,#453,.F.) ;
#463=EDGE_CURVE('',#462,#455,#460,.T.) ;
#468=EDGE_CURVE('',#431,#462,#467,.F.) ;
#480=EDGE_CURVE('',#455,#115,#479,.T.) ;
#485=EDGE_CURVE('',#462,#106,#484,.T.) ;
#64=EDGE_LOOP('',(#65,#66,#67,#68)) ;
#95=EDGE_LOOP('',(#96,#97,#98,#99)) ;
#129=EDGE_LOOP('',(#130,#131,#132,#133)) ;
#160=EDGE_LOOP('',(#161,#162,#163,#164)) ;
#182=EDGE_LOOP('',(#183,#184,#185,#186)) ;
#216=EDGE_LOOP('',(#217,#218,#219,#220)) ;
#228=EDGE_LOOP('',(#229,#230,#231,#232)) ;
#240=EDGE_LOOP('',(#241,#242,#243,#244)) ;
#271=EDGE_LOOP('',(#272,#273,#274,#275)) ;
#302=EDGE_LOOP('',(#303,#304,#305,#306)) ;
#333=EDGE_LOOP('',(#334,#335,#336,#337)) ;
#355=EDGE_LOOP('',(#356,#357,#358,#359)) ;
#367=EDGE_LOOP('',(#368,#369,#370,#371,#372)) ;
#380=EDGE_LOOP('',(#381,#382,#383,#384,#385)) ;
#407=EDGE_LOOP('',(#408,#409,#410,#411)) ;
#438=EDGE_LOOP('',(#439,#440,#441,#442)) ;
#469=EDGE_LOOP('',(#470,#471,#472,#473)) ;
#486=EDGE_LOOP('',(#487,#488,#489,#490)) ;
#493=EDGE_LOOP('',(#494,#495,#496,#497,#498)) ;
#501=EDGE_LOOP('',(#502,#503,#504,#505,#506)) ;
#69=FACE_OUTER_BOUND('',#64,.T.) ;
#100=FACE_OUTER_BOUND('',#95,.T.) ;
#165=FACE_OUTER_BOUND('',#160,.T.) ;
#187=FACE_OUTER_BOUND('',#182,.T.) ;
#233=FACE_OUTER_BOUND('',#228,.T.) ;
#245=FACE_OUTER_BOUND('',#240,.T.) ;
#276=FACE_OUTER_BOUND('',#271,.T.) ;
#307=FACE_OUTER_BOUND('',#302,.T.) ;
#338=FACE_OUTER_BOUND('',#333,.T.) ;
#360=FACE_OUTER_BOUND('',#355,.T.) ;
#373=FACE_OUTER_BOUND('',#367,.T.) ;
#386=FACE_OUTER_BOUND('',#380,.T.) ;
#412=FACE_OUTER_BOUND('',#407,.T.) ;
#443=FACE_OUTER_BOUND('',#438,.T.) ;
#474=FACE_OUTER_BOUND('',#469,.T.) ;
#491=FACE_OUTER_BOUND('',#486,.T.) ;
#499=FACE_OUTER_BOUND('',#493,.T.) ;
#507=FACE_OUTER_BOUND('',#501,.T.) ;
#39=LINE('Line',#36,#38) ;
#48=LINE('Line',#45,#47) ;
#55=LINE('Line',#52,#54) ;
#62=LINE('Line',#59,#61) ;
#79=LINE('Line',#76,#78) ;
#86=LINE('Line',#83,#85) ;
#93=LINE('Line',#90,#92) ;
#104=LINE('Line',#101,#103) ;
#113=LINE('Line',#110,#112) ;
#120=LINE('Line',#117,#119) ;
#127=LINE('Line',#124,#126) ;
#144=LINE('Line',#141,#143) ;
#151=LINE('Line',#148,#150) ;
#158=LINE('Line',#155,#157) ;
#175=LINE('Line',#172,#174) ;
#180=LINE('Line',#177,#179) ;
#191=LINE('Line',#188,#190) ;
#200=LINE('Line',#197,#199) ;
#207=LINE('Line',#204,#206) ;
#214=LINE('Line',#211,#213) ;
#255=LINE('Line',#252,#254) ;
#262=LINE('Line',#259,#261) ;
#269=LINE('Line',#266,#268) ;
#286=LINE('Line',#283,#285) ;
#293=LINE('Line',#290,#292) ;
#300=LINE('Line',#297,#299) ;
#317=LINE('Line',#314,#316) ;
#324=LINE('Line',#321,#323) ;
#331=LINE('Line',#328,#330) ;
#348=LINE('Line',#345,#347) ;
#353=LINE('Line',#350,#352) ;
#391=LINE('Line',#388,#390) ;
#398=LINE('Line',#395,#397) ;
#405=LINE('Line',#402,#404) ;
#422=LINE('Line',#419,#421) ;
#429=LINE('Line',#426,#428) ;
#436=LINE('Line',#433,#435) ;
#453=LINE('Line',#450,#452) ;
#460=LINE('Line',#457,#459) ;
#467=LINE('Line',#464,#466) ;
#479=LINE('Line',#476,#478) ;
#484=LINE('Line',#481,#483) ;
#35=PLANE('',#34) ;
#75=PLANE('',#74) ;
#140=PLANE('',#139) ;
#171=PLANE('',#170) ;
#227=PLANE('',#226) ;
#239=PLANE('',#238) ;
#251=PLANE('',#250) ;
#282=PLANE('',#281) ;
#313=PLANE('',#312) ;
#344=PLANE('',#343) ;
#366=PLANE('',#365) ;
#379=PLANE('',#378) ;
#418=PLANE('',#417) ;
#449=PLANE('',#448) ;
#9=PRODUCT_CATEGORY_RELATIONSHIP(' ',' ',#7,#8) ;
#6=PRODUCT_DEFINITION_FORMATION_WITH_SPECIFIED_SOURCE('',' ',#5,.NOT_KNOWN.) ;
#20=SHAPE_DEFINITION_REPRESENTATION(#11,#19) ;
#41=VERTEX_POINT('',#40) ;
#43=VERTEX_POINT('',#42) ;
#50=VERTEX_POINT('',#49) ;
#57=VERTEX_POINT('',#56) ;
#81=VERTEX_POINT('',#80) ;
#88=VERTEX_POINT('',#87) ;
#106=VERTEX_POINT('',#105) ;
#108=VERTEX_POINT('',#107) ;
#115=VERTEX_POINT('',#114) ;
#122=VERTEX_POINT('',#121) ;
#146=VERTEX_POINT('',#145) ;
#153=VERTEX_POINT('',#152) ;
#193=VERTEX_POINT('',#192) ;
#195=VERTEX_POINT('',#194) ;
#202=VERTEX_POINT('',#201) ;
#209=VERTEX_POINT('',#208) ;
#257=VERTEX_POINT('',#256) ;
#264=VERTEX_POINT('',#263) ;
#288=VERTEX_POINT('',#287) ;
#295=VERTEX_POINT('',#294) ;
#319=VERTEX_POINT('',#318) ;
#326=VERTEX_POINT('',#325) ;
#393=VERTEX_POINT('',#392) ;
#400=VERTEX_POINT('',#399) ;
#424=VERTEX_POINT('',#423) ;
#431=VERTEX_POINT('',#430) ;
#455=VERTEX_POINT('',#454) ;
#462=VERTEX_POINT('',#461) ;
#12=(LENGTH_UNIT()NAMED_UNIT(*)SI_UNIT(.MILLI.,.METRE.)) ;
#13=(NAMED_UNIT(*)PLANE_ANGLE_UNIT()SI_UNIT($,.RADIAN.)) ;
#14=(NAMED_UNIT(*)SI_UNIT($,.STERADIAN.)SOLID_ANGLE_UNIT()) ;
#16=(GEOMETRIC_REPRESENTATION_CONTEXT(3)GLOBAL_UNCERTAINTY_ASSIGNED_CONTEXT((#15))GLOBAL_UNIT_ASSIGNED_CONTEXT((#12,#13,#14))REPRESENTATION_CONTEXT(' ',' ')) ;
ENDSEC;
END-ISO-10303-21;
