  0
SECTION
  2
HEADER
  9
$ACADVER
  1
AC1015
  9
$ACADMAINTVER
 70
     6
  9
$DWGCODEPAGE
  3
ANSI_1252
  9
$INSBASE
 10
0.0
 20
0.0
 30
0.0
  9
$EXTMIN
 10
-0.5
 20
-0.5
 30
-0.5
  9
$EXTMAX
 10
5.0
 20
5.0
 30
5.0
  9
$LIMMIN
 10
-0.5
 20
-0.5
  9
$LIMMAX
 10
5.0
 20
5.0
  9
$ORTHOMODE
 70
     0
  9
$REGENMODE
 70
     1
  9
$FILLMODE
 70
     1
  9
$QTEXTMODE
 70
     0
  9
$MIRRTEXT
 70
     1
  9
$LTSCALE
 40
1.0
  9
$ATTMODE
 70
     1
  9
$TEXTSIZE
 40
0.2
  9
$TRACEWID
 40
0.05
  9
$TEXTSTYLE
  7
Standard
  9
$CLAYER
  8
0
  9
$CELTYPE
  6
Continuous
  9
$CECOLOR
 62
   256
  9
$CELTSCALE
 40
1.0
  9
$DISPSILH
 70
     0
  9
$DIMSCALE
 40
1.0
  9
$DIMASZ
 40
0.18
  9
$DIMEXO
 40
0.0625
  9
$DIMDLI
 40
0.38
  9
$DIMRND
 40
0.0
  9
$DIMDLE
 40
0.0
  9
$DIMEXE
 40
0.18
  9
$DIMTP
 40
0.0
  9
$DIMTM
 40
0.0
  9
$DIMTXT
 40
0.18
  9
$DIMCEN
 40
0.09
  9
$DIMTSZ
 40
0.0
  9
$DIMTOL
 70
     0
  9
$DIMLIM
 70
     0
  9
$DIMTIH
 70
     1
  9
$DIMTOH
 70
     1
  9
$DIMSE1
 70
     0
  9
$DIMSE2
 70
     0
  9
$DIMTAD
 70
     0
  9
$DIMZIN
 70
     0
  9
$DIMBLK
  1

  9
$DIMASO
 70
     1
  9
$DIMSHO
 70
     1
  9
$DIMPOST
  1

  9
$DIMAPOST
  1

  9
$DIMALT
 70
     0
  9
$DIMALTD
 70
     2
  9
$DIMALTF
 40
25.4
  9
$DIMLFAC
 40
1.0
  9
$DIMTOFL
 70
     0
  9
$DIMTVP
 40
0.0
  9
$DIMTIX
 70
     0
  9
$DIMSOXD
 70
     0
  9
$DIMSAH
 70
     0
  9
$DIMBLK1
  1

  9
$DIMBLK2
  1

  9
$DIMSTYLE
  2
Standard
  9
$DIMCLRD
 70
     0
  9
$DIMCLRE
 70
     0
  9
$DIMCLRT
 70
     0
  9
$DIMTFAC
 40
1.0
  9
$DIMGAP
 40
0.09
  9
$DIMJUST
 70
     0
  9
$DIMSD1
 70
     0
  9
$DIMSD2
 70
     0
  9
$DIMTOLJ
 70
     1
  9
$DIMTZIN
 70
     0
  9
$DIMALTZ
 70
     0
  9
$DIMALTTZ
 70
     0
  9
$DIMUPT
 70
     0
  9
$DIMDEC
 70
     4
  9
$DIMTDEC
 70
     4
  9
$DIMALTU
 70
     2
  9
$DIMALTTD
 70
     2
  9
$DIMTXSTY
  7
Standard
  9
$DIMAUNIT
 70
     0
  9
$DIMADEC
 70
     0
  9
$DIMALTRND
 40
0.0
  9
$DIMAZIN
 70
     0
  9
$DIMDSEP
 70
     0
  9
$DIMATFIT
 70
     3
  9
$DIMFRAC
 70
     0
  9
$DIMLDRBLK
  1

  9
$DIMLUNIT
 70
     2
  9
$DIMLWD
 70
     0
  9
$DIMLWE
 70
     0
  9
$DIMTMOVE
 70
     0
  9
$LUNITS
 70
     2
  9
$LUPREC
 70
     4
  9
$SKETCHINC
 40
0.1
  9
$FILLETRAD
 40
0.0
  9
$AUNITS
 70
     0
  9
$AUPREC
 70
     0
  9
$MENU
  1
acad
  9
$ELEVATION
 40
0.0
  9
$PELEVATION
 40
0.0
  9
$THICKNESS
 40
0.0
  9
$LIMCHECK
 70
     0
  9
$CHAMFERA
 40
0.0
  9
$CHAMFERB
 40
0.0
  9
$CHAMFERC
 40
0.0
  9
$CHAMFERD
 40
0.0
  9
$SKPOLY
 70
     0
  9
$TDCREATE
 40
0.000000000
  9
$TDUCREATE
 40
0.000000000
  9
$TDUPDATE
 40
0.000000000
  9
$TDUUPDATE
 40
0.000000000
  9
$TDINDWG
 40
0.0000000000
  9
$TDUSRTIMER
 40
0.0000000000
  9
$USRTIMER
 70
     1
  9
$ANGBASE
 50
0.0
  9
$ANGDIR
 70
     0
  9
$PDMODE
 70
     0
  9
$PDSIZE
 40
0.0
  9
$PLINEWID
 40
0.0
  9
$SPLFRAME
 70
     0
  9
$SPLINETYPE
 70
     6
  9
$SPLINESEGS
 70
     8
  9
$HANDSEED
  5
155
  9
$SURFTAB1
 70
     6
  9
$SURFTAB2
 70
     6
  9
$SURFTYPE
 70
     6
  9
$SURFU
 70
     6
  9
$SURFV
 70
     6
  9
$UCSBASE
  2

  9
$UCSNAME
  2

  9
$UCSORG
 10
0.0
 20
0.0
 30
0.0
  9
$UCSXDIR
 10
1.0
 20
0.0
 30
0.0
  9
$UCSYDIR
 10
0.0
 20
1.0
 30
0.0
  9
$UCSORTHOREF
  2

  9
$UCSORTHOVIEW
 70
     0
  9
$UCSORGTOP
 10
0.0
 20
0.0
 30
0.0
  9
$UCSORGBOTTOM
 10
0.0
 20
0.0
 30
0.0
  9
$UCSORGLEFT
 10
0.0
 20
0.0
 30
0.0
  9
$UCSORGRIGHT
 10
0.0
 20
0.0
 30
0.0
  9
$UCSORGFRONT
 10
0.0
 20
0.0
 30
0.0
  9
$UCSORGBACK
 10
0.0
 20
0.0
 30
0.0
  9
$PUCSBASE
  2

  9
$PUCSNAME
  2

  9
$PUCSORG
 10
0.0
 20
0.0
 30
0.0
  9
$PUCSXDIR
 10
1.0
 20
0.0
 30
0.0
  9
$PUCSYDIR
 10
0.0
 20
1.0
 30
0.0
  9
$PUCSORTHOREF
  2

  9
$PUCSORTHOVIEW
 70
     0
  9
$PUCSORGTOP
 10
0.0
 20
0.0
 30
0.0
  9
$PUCSORGBOTTOM
 10
0.0
 20
0.0
 30
0.0
  9
$PUCSORGLEFT
 10
0.0
 20
0.0
 30
0.0
  9
$PUCSORGRIGHT
 10
0.0
 20
0.0
 30
0.0
  9
$PUCSORGFRONT
 10
0.0
 20
0.0
 30
0.0
  9
$PUCSORGBACK
 10
0.0
 20
0.0
 30
0.0
  9
$USERI1
 70
     0
  9
$USERI2
 70
     0
  9
$USERI3
 70
     0
  9
$USERI4
 70
     0
  9
$USERI5
 70
     0
  9
$USERR1
 40
0.0
  9
$USERR2
 40
0.0
  9
$USERR3
 40
0.0
  9
$USERR4
 40
0.0
  9
$USERR5
 40
0.0
  9
$WORLDVIEW
 70
     1
  9
$SHADEDGE
 70
     3
  9
$SHADEDIF
 70
    70
  9
$TILEMODE
 70
     1
  9
$MAXACTVP
 70
    16
  9
$PINSBASE
 10
0.0
 20
0.0
 30
0.0
  9
$PLIMCHECK
 70
     0
  9
$PEXTMIN
 10
-0.5
 20
-0.5
 30
-0.5
  9
$PEXTMAX
 10
5.0
 20
5.0
 30
5.0
  9
$PLIMMIN
 10
-0.5
 20
-0.5
  9
$PLIMMAX
 10
5.0
 20
5.0
  9
$UNITMODE
 70
     0
  9
$VISRETAIN
 70
     0
  9
$PLINEGEN
 70
     1
  9
$PSLTSCALE
 70
     0
  9
$TREEDEPTH
 70
  3020
  9
$CMLSTYLE
  2
Standard
  9
$CMLJUST
 70
     0
  9
$CMLSCALE
 40
1.0
  9
$PROXYGRAPHICS
 70
     0
  9
$MEASUREMENT
 70
     0
  9
$CELWEIGHT
370
     0
  9
$ENDCAPS
280
     0
  9
$JOINSTYLE
280
     0
  9
$LWDISPLAY
290
     0
  9
$INSUNITS
 70
     0
  9
$HYPERLINKBASE
  1

  9
$STYLESHEET
  1

  9
$XEDIT
290
     1
  9
$CEPSNTYPE
380
     0
  9
$PSTYLEMODE
290
     1
  9
$FINGERPRINTGUID
  2

  9
$VERSIONGUID
  2

  9
$EXTNAMES
290
     1
  9
$PSVPSCALE
 40
0.0
  0
ENDSEC
  0
SECTION
  2
CLASSES
  0
CLASS
  1
LWPOLYLINE
  2
AcDbPolyline
  3
AutoCAD 2000
 90
    32768
280
     0
281
     1
  0
CLASS
  1
IMAGE
  2
AcDbRasterImage
  3
ISM
 90
    32895
280
     0
281
     1
  0
CLASS
  1
OLE2FRAME
  2
AcDbOle2Frame
  3
AutoCAD 2000
 90
    32768
280
     0
281
     1
  0
CLASS
  1
HATCH
  2
AcDbHatch
  3
AutoCAD 2000
 90
    32768
280
     0
281
     1
  0
CLASS
  1
DICTIONARYVAR
  2
AcDbDictionaryVar
  3
AutoCAD 2000
 90
    32768
280
     0
281
     0
  0
CLASS
  1
RASTERVARIABLES
  2
AcDbRasterVariables
  3
ISM
 90
    32768
280
     0
281
     0
  0
CLASS
  1
IMAGEDEF
  2
AcDbRasterImageDef
  3
ISM
 90
    32768
280
     0
281
     0
  0
CLASS
  1
IMAGEDEF_REACTOR
  2
AcDbRasterImageDefReactor
  3
ISM
 90
    32769
280
     0
281
     0
  0
CLASS
  1
IDBUFFER
  2
AcDbIdBuffer
  3
AutoCAD 2000
 90
    32768
280
     0
281
     0
  0
CLASS
  1
SPATIAL_FILTER
  2
AcDbSpatialFilter
  3
AutoCAD 2000
 90
    32768
280
     0
281
     0
  0
CLASS
  1
XRECORD
  2
AcDbXrecord
  3
AutoCAD 2000
 90
    32768
280
     0
281
     0
  0
CLASS
  1
SORTENTSTABLE
  2
AcDbSortentsTable
  3
AutoCAD 2000
 90
    32768
280
     0
281
     0
  0
CLASS
  1
LAYER_INDEX
  2
AcDbLayerIndex
  3
AutoCAD 2000
 90
    32768
280
     0
281
     0
  0
CLASS
  1
SPATIAL_INDEX
  2
AcDbSpatialIndex
  3
AutoCAD 2000
 90
    32768
280
     0
281
     0
  0
CLASS
  1
OBJECT_PTR
  2
CAseDLPNTableRecord
  3
"ASE-LPNTableRecord"
 90
    32769
280
     0
281
     0
  0
CLASS
  1
LAYOUT
  2
AcDbLayout
  3
AutoCAD 2000
 90
        0
280
     0
281
     0
  0
CLASS
  1
PLOTSETTINGS
  2
AcDbPlotSettings
  3
AutoCAD 2000
 90
    32768
280
     0
281
     0
  0
CLASS
  1
ACDBDICTIONARYWDFLT
  2
AcDbDictionaryWithDefault
  3
AutoCAD 2000
 90
        0
280
     0
281
     0
  0
CLASS
  1
ACDBPLACEHOLDER
  2
AcDbPlaceHolder
  3
AutoCAD 2000
 90
        0
280
     0
281
     0
  0
CLASS
  1
VBA_PROJECT
  2
AcDbVbaProject
  3
acadvba
 90
    32768
280
     0
281
     0
  0
CLASS
  1
WIPEOUT
  2
AcDbWipeout
  3
WipeOut|AutoCAD Express Tool|expresstools@autodesk.com
 90
    32895
280
     0
281
     1
  0
CLASS
  1
WIPEOUTVARIABLES
  2
AcDbWipeoutVariables
  3
WipeOut|AutoCAD Express Tool|expresstools@autodesk.com
 90
        0
280
     0
281
     0
  0
CLASS
  1
RTEXT
  2
RText
  3
RText|AutoCAD Express Tool|expresstools@autodesk.com
 90
    32768
280
     0
281
     1
  0
CLASS
  1
ARCALIGNEDTEXT
  2
AcDbArcAlignedText
  3
ATEXT|AutoCAD Express Tool|expresstools@autodesk.com
 90
    32768
280
     0
281
     1
  0
ENDSEC
  0
SECTION
  2
TABLES
  0
TABLE
  2
VPORT
  5
7
100
AcDbSymbolTable
 70
    16
  0
VPORT
  5
D3
100
AcDbSymbolTableRecord
100
AcDbViewportTableRecord
  2
*ACTIVE
 70
     0
 10
0.0
 20
0.0
 11
1.0
 21
1.0
 12
4.312242
 22
0.000067
 13
0.0
 23
0.0
 14
1.0
 24
1.0
 15
0.0
 25
0.0
 16
0.0
 26
0.0
 36
1.0
 17
0.0
 27
0.0
 37
0.0
 40
254.0
 41
0.688564
 42
50.0
 43
133.763817
 44
-133.763817
 50
0.0
 51
0.0
 71
    16
 72
   100
 73
     1
 74
     1
 75
     0
 76
     0
 77
     0
 78
     0
281
     0
 65
     0
110
0.0
120
0.0
130
0.0
111
1.0
121
0.0
131
0.0
112
0.0
122
1.0
132
0.0
345
0
346
0
 79
     0
146
0.0
  0
VPORT
  5
D4
100
AcDbSymbolTableRecord
100
AcDbViewportTableRecord
  2
L1
 70
     0
 10
0.0
 20
0.0
 11
1.0
 21
1.0
 12
4.312242
 22
0.000067
 13
0.0
 23
0.0
 14
1.0
 24
1.0
 15
0.0
 25
0.0
 16
0.0
 26
0.0
 36
1.0
 17
0.0
 27
0.0
 37
0.0
 40
254.0
 41
0.688564
 42
50.0
 43
133.763817
 44
-133.763817
 50
0.0
 51
0.0
 71
    16
 72
   100
 73
     1
 74
     1
 75
     0
 76
     0
 77
     0
 78
     0
281
     0
 65
     0
110
0.0
120
0.0
130
0.0
111
1.0
121
0.0
131
0.0
112
0.0
122
1.0
132
0.0
345
0
346
0
 79
     0
146
0.0
  0
VPORT
  5
D5
100
AcDbSymbolTableRecord
100
AcDbViewportTableRecord
  2
L2
 70
     0
 10
0.0
 20
0.0
 11
0.5
 21
1.0
 12
0.0
 22
0.0
 13
0.0
 23
0.0
 14
1.0
 24
1.0
 15
0.0
 25
0.0
 16
0.0
 26
-1.0
 36
0.0
 17
0.0
 27
0.0
 37
0.0
 40
1409.292458
 41
0.688564
 42
50.0
 43
720.720402
 44
-720.720402
 50
0.0
 51
0.0
 71
    16
 72
   100
 73
     1
 74
     1
 75
     0
 76
     0
 77
     0
 78
     0
281
     0
 65
     0
110
0.0
120
0.0
130
0.0
111
1.0
121
0.0
131
0.0
112
0.0
122
1.0
132
0.0
345
0
346
0
 79
     0
146
0.0
  0
VPORT
  5
D6
100
AcDbSymbolTableRecord
100
AcDbViewportTableRecord
  2
L2
 70
     0
 10
0.5
 20
0.0
 11
1.0
 21
1.0
 12
0.0
 22
0.0
 13
0.0
 23
0.0
 14
1.0
 24
1.0
 15
0.0
 25
0.0
 16
1.0
 26
0.0
 36
0.0
 17
0.0
 27
0.0
 37
0.0
 40
1409.292458
 41
0.688564
 42
50.0
 43
715.999517
 44
-715.999517
 50
0.0
 51
0.0
 71
    16
 72
   100
 73
     1
 74
     1
 75
     0
 76
     0
 77
     0
 78
     0
281
     0
 65
     0
110
0.0
120
0.0
130
0.0
111
1.0
121
0.0
131
0.0
112
0.0
122
1.0
132
0.0
345
0
346
0
 79
     0
146
0.0
  0
VPORT
  5
D7
100
AcDbSymbolTableRecord
100
AcDbViewportTableRecord
  2
L3
 70
     0
 10
0.0
 20
0.5
 11
1.0
 21
1.0
 12
4.312242
 22
0.000067
 13
0.0
 23
0.0
 14
1.0
 24
1.0
 15
0.0
 25
0.0
 16
0.0
 26
0.0
 36
1.0
 17
0.0
 27
0.0
 37
0.0
 40
254.0
 41
0.688564
 42
50.0
 43
133.763817
 44
-133.763817
 50
0.0
 51
0.0
 71
    16
 72
   100
 73
     1
 74
     1
 75
     0
 76
     0
 77
     0
 78
     0
281
     0
 65
     0
110
0.0
120
0.0
130
0.0
111
1.0
121
0.0
131
0.0
112
0.0
122
1.0
132
0.0
345
0
346
0
 79
     0
146
0.0
  0
VPORT
  5
D8
100
AcDbSymbolTableRecord
100
AcDbViewportTableRecord
  2
L3
 70
     0
 10
0.0
 20
0.0
 11
1.0
 21
0.5
 12
0.0
 22
0.0
 13
0.0
 23
0.0
 14
1.0
 24
1.0
 15
0.0
 25
0.0
 16
0.0
 26
-1.0
 36
0.0
 17
0.0
 27
0.0
 37
0.0
 40
1409.292458
 41
0.688564
 42
50.0
 43
720.720402
 44
-720.720402
 50
0.0
 51
0.0
 71
    16
 72
   100
 73
     1
 74
     1
 75
     0
 76
     0
 77
     0
 78
     0
281
     0
 65
     0
110
0.0
120
0.0
130
0.0
111
1.0
121
0.0
131
0.0
112
0.0
122
1.0
132
0.0
345
0
346
0
 79
     0
146
0.0
  0
VPORT
  5
D9
100
AcDbSymbolTableRecord
100
AcDbViewportTableRecord
  2
L4
 70
     0
 10
0.0
 20
0.5
 11
0.5
 21
1.0
 12
4.312242
 22
0.000067
 13
0.0
 23
0.0
 14
1.0
 24
1.0
 15
0.0
 25
0.0
 16
0.0
 26
0.0
 36
1.0
 17
0.0
 27
0.0
 37
0.0
 40
254.0
 41
0.688564
 42
50.0
 43
133.763817
 44
-133.763817
 50
0.0
 51
0.0
 71
    16
 72
   100
 73
     1
 74
     1
 75
     0
 76
     0
 77
     0
 78
     0
281
     0
 65
     0
110
0.0
120
0.0
130
0.0
111
1.0
121
0.0
131
0.0
112
0.0
122
1.0
132
0.0
345
0
346
0
 79
     0
146
0.0
  0
VPORT
  5
DA
100
AcDbSymbolTableRecord
100
AcDbViewportTableRecord
  2
L4
 70
     0
 10
0.0
 20
0.0
 11
0.5
 21
0.5
 12
0.0
 22
0.0
 13
0.0
 23
0.0
 14
1.0
 24
1.0
 15
0.0
 25
0.0
 16
0.0
 26
-1.0
 36
0.0
 17
0.0
 27
0.0
 37
0.0
 40
1409.292458
 41
0.688564
 42
50.0
 43
720.720402
 44
-720.720402
 50
0.0
 51
0.0
 71
    16
 72
   100
 73
     1
 74
     1
 75
     0
 76
     0
 77
     0
 78
     0
281
     0
 65
     0
110
0.0
120
0.0
130
0.0
111
1.0
121
0.0
131
0.0
112
0.0
122
1.0
132
0.0
345
0
346
0
 79
     0
146
0.0
  0
VPORT
  5
DB
100
AcDbSymbolTableRecord
100
AcDbViewportTableRecord
  2
L4
 70
     0
 10
0.5
 20
0.0
 11
1.0
 21
0.5
 12
0.0
 22
0.0
 13
0.0
 23
0.0
 14
1.0
 24
1.0
 15
0.0
 25
0.0
 16
1.0
 26
0.0
 36
0.0
 17
0.0
 27
0.0
 37
0.0
 40
1409.292458
 41
0.688564
 42
50.0
 43
715.999517
 44
-715.999517
 50
0.0
 51
0.0
 71
    16
 72
   100
 73
     1
 74
     1
 75
     0
 76
     0
 77
     0
 78
     0
281
     0
 65
     0
110
0.0
120
0.0
130
0.0
111
1.0
121
0.0
131
0.0
112
0.0
122
1.0
132
0.0
345
0
346
0
 79
     0
146
0.0
  0
VPORT
  5
DC
100
AcDbSymbolTableRecord
100
AcDbViewportTableRecord
  2
L4
 70
     0
 10
0.5
 20
0.5
 11
1.0
 21
1.0
 12
0.0
 22
0.0
 13
0.0
 23
0.0
 14
1.0
 24
1.0
 15
0.0
 25
0.0
 16
0.57735
 26
-0.57735
 36
0.57735
 17
0.0
 27
0.0
 37
0.0
 40
1377.967156
 41
0.688564
 42
50.0
 43
716.548753
 44
-716.548753
 50
0.0
 51
0.0
 71
    16
 72
   100
 73
     1
 74
     1
 75
     0
 76
     0
 77
     0
 78
     0
281
     0
 65
     0
110
0.0
120
0.0
130
0.0
111
1.0
121
0.0
131
0.0
112
0.0
122
1.0
132
0.0
345
0
346
0
 79
     0
146
0.0
  0
VPORT
  5
DD
100
AcDbSymbolTableRecord
100
AcDbViewportTableRecord
  2
L6
 70
     0
 10
0.0
 20
0.5
 11
0.333333
 21
1.0
 12
0.0
 22
0.0
 13
0.0
 23
0.0
 14
1.0
 24
1.0
 15
0.0
 25
0.0
 16
0.718873
 26
-0.585049
 36
0.375419
 17
0.0
 27
0.0
 37
0.0
 40
1454.549166
 41
0.688564
 42
50.0
 43
752.716715
 44
-752.716715
 50
0.0
 51
0.0
 71
    16
 72
   100
 73
     1
 74
     1
 75
     0
 76
     0
 77
     0
 78
     0
281
     0
 65
     0
110
0.0
120
0.0
130
0.0
111
1.0
121
0.0
131
0.0
112
0.0
122
1.0
132
0.0
345
0
346
0
 79
     0
146
0.0
  0
VPORT
  5
DE
100
AcDbSymbolTableRecord
100
AcDbViewportTableRecord
  2
L6
 70
     0
 10
0.0
 20
0.0
 11
0.333333
 21
0.5
 12
0.0
 22
0.0
 13
0.0
 23
0.0
 14
1.0
 24
1.0
 15
0.0
 25
0.0
 16
-1.0
 26
0.0
 36
0.0
 17
0.0
 27
0.0
 37
0.0
 40
1409.292458
 41
0.688564
 42
50.0
 43
715.999517
 44
-715.999517
 50
0.0
 51
0.0
 71
    16
 72
   100
 73
     1
 74
     1
 75
     0
 76
     0
 77
     0
 78
     0
281
     0
 65
     0
110
0.0
120
0.0
130
0.0
111
1.0
121
0.0
131
0.0
112
0.0
122
1.0
132
0.0
345
0
346
0
 79
     0
146
0.0
  0
VPORT
  5
DF
100
AcDbSymbolTableRecord
100
AcDbViewportTableRecord
  2
L6
 70
     0
 10
0.333333
 20
0.5
 11
0.666667
 21
1.0
 12
4.312242
 22
0.000067
 13
0.0
 23
0.0
 14
1.0
 24
1.0
 15
0.0
 25
0.0
 16
0.0
 26
0.0
 36
1.0
 17
0.0
 27
0.0
 37
0.0
 40
254.0
 41
0.688564
 42
50.0
 43
133.763817
 44
-133.763817
 50
0.0
 51
0.0
 71
    16
 72
   100
 73
     1
 74
     1
 75
     0
 76
     0
 77
     0
 78
     0
281
     0
 65
     0
110
0.0
120
0.0
130
0.0
111
1.0
121
0.0
131
0.0
112
0.0
122
1.0
132
0.0
345
0
346
0
 79
     0
146
0.0
  0
VPORT
  5
E0
100
AcDbSymbolTableRecord
100
AcDbViewportTableRecord
  2
L6
 70
     0
 10
0.333333
 20
0.0
 11
0.666667
 21
0.5
 12
0.0
 22
0.0
 13
0.0
 23
0.0
 14
1.0
 24
1.0
 15
0.0
 25
0.0
 16
0.0
 26
-1.0
 36
0.0
 17
0.0
 27
0.0
 37
0.0
 40
1409.292458
 41
0.688564
 42
50.0
 43
720.720402
 44
-720.720402
 50
0.0
 51
0.0
 71
    16
 72
   100
 73
     1
 74
     1
 75
     0
 76
     0
 77
     0
 78
     0
281
     0
 65
     0
110
0.0
120
0.0
130
0.0
111
1.0
121
0.0
131
0.0
112
0.0
122
1.0
132
0.0
345
0
346
0
 79
     0
146
0.0
  0
VPORT
  5
E1
100
AcDbSymbolTableRecord
100
AcDbViewportTableRecord
  2
L6
 70
     0
 10
0.666667
 20
0.5
 11
1.0
 21
1.0
 12
0.0
 22
0.0
 13
0.0
 23
0.0
 14
1.0
 24
1.0
 15
0.0
 25
0.0
 16
0.57735
 26
-0.57735
 36
0.57735
 17
0.0
 27
0.0
 37
0.0
 40
1377.967156
 41
0.688564
 42
50.0
 43
716.548753
 44
-716.548753
 50
0.0
 51
0.0
 71
    16
 72
   100
 73
     1
 74
     1
 75
     0
 76
     0
 77
     0
 78
     0
281
     0
 65
     0
110
0.0
120
0.0
130
0.0
111
1.0
121
0.0
131
0.0
112
0.0
122
1.0
132
0.0
345
0
346
0
 79
     0
146
0.0
  0
VPORT
  5
E2
100
AcDbSymbolTableRecord
100
AcDbViewportTableRecord
  2
L6
 70
     0
 10
0.666667
 20
0.0
 11
1.0
 21
0.5
 12
0.0
 22
0.0
 13
0.0
 23
0.0
 14
1.0
 24
1.0
 15
0.0
 25
0.0
 16
1.0
 26
0.0
 36
0.0
 17
0.0
 27
0.0
 37
0.0
 40
1409.292458
 41
0.688564
 42
50.0
 43
715.999517
 44
-715.999517
 50
0.0
 51
0.0
 71
    16
 72
   100
 73
     1
 74
     1
 75
     0
 76
     0
 77
     0
 78
     0
281
     0
 65
     0
110
0.0
120
0.0
130
0.0
111
1.0
121
0.0
131
0.0
112
0.0
122
1.0
132
0.0
345
0
346
0
 79
     0
146
0.0
  0
ENDTAB
  0
TABLE
  2
LTYPE
  5
4
100
AcDbSymbolTable
 70
     9
  0
LTYPE
  5
11
100
AcDbSymbolTableRecord
100
AcDbLinetypeTableRecord
  2
ByBlock
 70
    64
  3

 72
    65
 73
     0
 40
0.0
  0
LTYPE
  5
12
100
AcDbSymbolTableRecord
100
AcDbLinetypeTableRecord
  2
ByLayer
 70
    64
  3

 72
    65
 73
     0
 40
0.0
  0
LTYPE
  5
13
100
AcDbSymbolTableRecord
100
AcDbLinetypeTableRecord
  2
Continuous
 70
    64
  3
Solid line
 72
    65
 73
     0
 40
0.0
  0
LTYPE
  5
24
100
AcDbSymbolTableRecord
100
AcDbLinetypeTableRecord
  2
DASHED
 70
    64
  3
__ __ __ __ __ __ __ __ __
 72
    65
 73
     2
 40
0.75
 49
0.5
 74
     0
 49
-0.25
 74
     0
  0
LTYPE
  5
25
100
AcDbSymbolTableRecord
100
AcDbLinetypeTableRecord
  2
HIDDEN
 70
    64
  3
_ _ _ _ _ _ _ _ _ _ _ _ _ _ _
 72
    65
 73
     2
 40
0.5
 49
0.25
 74
     0
 49
-0.25
 74
     0
  0
LTYPE
  5
26
100
AcDbSymbolTableRecord
100
AcDbLinetypeTableRecord
  2
PHANTOM
 70
    64
  3
____ _ _ ____ _ _ _____ _ _ ____
 72
    65
 73
     6
 40
2.5
 49
1.25
 74
     0
 49
-0.25
 74
     0
 49
0.25
 74
     0
 49
-0.25
 74
     0
 49
0.25
 74
     0
 49
-0.25
 74
     0
  0
LTYPE
  5
27
100
AcDbSymbolTableRecord
100
AcDbLinetypeTableRecord
  2
CENTER
 70
    64
  3
____ _ ____ _ ____ _ ____
 72
    65
 73
     4
 40
2.0
 49
1.25
 74
     0
 49
-0.25
 74
     0
 49
0.25
 74
     0
 49
-0.25
 74
     0
  0
LTYPE
  5
28
100
AcDbSymbolTableRecord
100
AcDbLinetypeTableRecord
  2
DOT
 70
    64
  3
.........................
 72
    65
 73
     2
 40
0.25
 49
0.0
 74
     0
 49
-0.25
 74
     0
  0
LTYPE
  5
29
100
AcDbSymbolTableRecord
100
AcDbLinetypeTableRecord
  2
DASHDOT
 70
    64
  3
_._._._._._._._._._._._._._._._.
 72
    65
 73
     4
 40
1.0
 49
0.5
 74
     0
 49
-0.25
 74
     0
 49
0.0
 74
     0
 49
-0.25
 74
     0
  0
ENDTAB
  0
TABLE
  2
LAYER
  5
2
100
AcDbSymbolTable
 70
     2
  0
LAYER
  5
14
100
AcDbSymbolTableRecord
100
AcDbLayerTableRecord
  2
0
 70
     0
 62
     7
  6
Continuous
290
     1
370
    -3
390
1D
  0
LAYER
  5
2B
100
AcDbSymbolTableRecord
100
AcDbLayerTableRecord
  2
1
 70
     0
 62
     7
  6
Continuous
290
     1
370
    -3
390
1D
  0
ENDTAB
  0
TABLE
  2
STYLE
  5
3
100
AcDbSymbolTable
 70
     1
  0
STYLE
  5
17
100
AcDbSymbolTableRecord
100
AcDbTextStyleTableRecord
  2
Standard
 70
     0
 40
0.0
 41
1.0
 50
0.0
 71
     0
 42
0.0
  3
txt
  4

  0
ENDTAB
  0
TABLE
  2
VIEW
  5
5
100
AcDbSymbolTable
 70
     8
  0
VIEW
  5
CB
100
AcDbSymbolTableRecord
100
AcDbViewTableRecord
  2
TOP
 70
     0
 40
254.0
 10
4.312242
 20
0.000067
 41
302.731497
 11
0.0
 21
0.0
 31
1.0
 12
0.0
 22
0.0
 32
0.0
 42
50.0
 43
133.763817
 44
-133.763817
 50
0.0
 71
    16
281
     0
 72
     0
110
0.0
120
0.0
130
0.0
111
1.0
121
0.0
131
0.0
112
0.0
122
1.0
132
0.0
  0
VIEW
  5
CC
100
AcDbSymbolTableRecord
100
AcDbViewTableRecord
  2
FRONT
 70
     0
 40
1409.292458
 10
0.0
 20
0.0
 41
302.731497
 11
0.0
 21
-1.0
 31
0.0
 12
0.0
 22
0.0
 32
0.0
 42
50.0
 43
720.720402
 44
-720.720402
 50
0.0
 71
    16
281
     0
 72
     0
110
0.0
120
0.0
130
0.0
111
1.0
121
0.0
131
0.0
112
0.0
122
1.0
132
0.0
  0
VIEW
  5
CD
100
AcDbSymbolTableRecord
100
AcDbViewTableRecord
  2
RIGHT
 70
     0
 40
1409.292458
 10
0.0
 20
0.0
 41
254.0
 11
1.0
 21
0.0
 31
0.0
 12
0.0
 22
0.0
 32
0.0
 42
50.0
 43
715.999517
 44
-715.999517
 50
0.0
 71
    16
281
     0
 72
     0
110
0.0
120
0.0
130
0.0
111
1.0
121
0.0
131
0.0
112
0.0
122
1.0
132
0.0
  0
VIEW
  5
CE
100
AcDbSymbolTableRecord
100
AcDbViewTableRecord
  2
BACK
 70
     0
 40
1409.292458
 10
0.0
 20
0.0
 41
302.731497
 11
0.0
 21
1.0
 31
0.0
 12
0.0
 22
0.0
 32
0.0
 42
50.0
 43
720.720402
 44
-720.720402
 50
0.0
 71
    16
281
     0
 72
     0
110
0.0
120
0.0
130
0.0
111
1.0
121
0.0
131
0.0
112
0.0
122
1.0
132
0.0
  0
VIEW
  5
CF
100
AcDbSymbolTableRecord
100
AcDbViewTableRecord
  2
BOTTOM
 70
     0
 40
254.0
 10
0.0
 20
0.0
 41
302.731497
 11
0.0
 21
0.0
 31
-1.0
 12
0.0
 22
0.0
 32
0.0
 42
50.0
 43
704.646229
 44
-704.646229
 50
180.0
 71
    16
281
     0
 72
     0
110
0.0
120
0.0
130
0.0
111
1.0
121
0.0
131
0.0
112
0.0
122
1.0
132
0.0
  0
VIEW
  5
D0
100
AcDbSymbolTableRecord
100
AcDbViewTableRecord
  2
LEFT
 70
     0
 40
1409.292458
 10
0.0
 20
0.0
 41
254.0
 11
-1.0
 21
0.0
 31
0.0
 12
0.0
 22
0.0
 32
0.0
 42
50.0
 43
715.999517
 44
-715.999517
 50
0.0
 71
    16
281
     0
 72
     0
110
0.0
120
0.0
130
0.0
111
1.0
121
0.0
131
0.0
112
0.0
122
1.0
132
0.0
  0
VIEW
  5
D1
100
AcDbSymbolTableRecord
100
AcDbViewTableRecord
  2
TFR-ISO
 70
     0
 40
1377.967156
 10
0.0
 20
0.0
 41
393.668617
 11
0.57735
 21
-0.57735
 31
0.57735
 12
0.0
 22
0.0
 32
0.0
 42
50.0
 43
716.548753
 44
-716.548753
 50
0.0
 71
    16
281
     0
 72
     0
110
0.0
120
0.0
130
0.0
111
1.0
121
0.0
131
0.0
112
0.0
122
1.0
132
0.0
  0
VIEW
  5
D2
100
AcDbSymbolTableRecord
100
AcDbViewTableRecord
  2
TFR-TRI
 70
     0
 40
1454.549166
 10
0.0
 20
0.0
 41
388.09346
 11
0.718873
 21
-0.585049
 31
0.375419
 12
0.0
 22
0.0
 32
0.0
 42
50.0
 43
752.716715
 44
-752.716715
 50
0.0
 71
    16
281
     0
 72
     0
110
0.0
120
0.0
130
0.0
111
1.0
121
0.0
131
0.0
112
0.0
122
1.0
132
0.0
  0
ENDTAB
  0
TABLE
  2
UCS
  5
6
100
AcDbSymbolTable
 70
     0
  0
ENDTAB
  0
TABLE
  2
APPID
  5
8
100
AcDbSymbolTable
 70
     1
  0
APPID
  5
16
100
AcDbSymbolTableRecord
100
AcDbRegAppTableRecord
  2
ACAD
 70
     0
  0
ENDTAB
  0
TABLE
  2
DIMSTYLE
  5
9
100
AcDbSymbolTable
 70
     1
100
AcDbDimStyleTable
 71
     0
  0
DIMSTYLE
105
18
100
AcDbSymbolTableRecord
100
AcDbDimStyleTableRecord
  2
Standard
 70
     0
  3

  4

 40
1.0
 41
0.18
 42
0.0625
 43
0.38
 44
0.18
 45
0.0
 46
0.0
 47
0.0
 48
0.0
 71
     0
 72
     0
 73
     1
 74
     1
 75
     0
 76
     0
 77
     0
 78
     0
 79
     0
140
0.18
141
0.09
142
0.0
143
25.4
144
1.0
145
0.0
146
1.0
147
0.09
148
0.0
170
     0
171
     2
172
     0
173
     0
174
     0
175
     0
176
     0
177
     0
178
     0
179
     0
271
     4
272
     4
273
     2
274
     2
275
     0
276
     0
277
     2
278
    46
279
     0
280
     0
281
     0
282
     0
283
     1
284
     0
285
     0
286
     0
288
     0
340
17
341
0
342
0
343
0
344
0
371
    -2
372
    -2
  0
ENDTAB
  0
TABLE
  2
BLOCK_RECORD
  5
1
100
AcDbSymbolTable
 70
     1
  0
BLOCK_RECORD
  5
A
100
AcDbSymbolTableRecord
100
AcDbBlockTableRecord
  2
*MODEL_SPACE
340
20
  0
BLOCK_RECORD
  5
B
100
AcDbSymbolTableRecord
100
AcDbBlockTableRecord
  2
*PAPER_SPACE
340
21
  0
BLOCK_RECORD
  5
E3
100
AcDbSymbolTableRecord
100
AcDbBlockTableRecord
  2
D1050_2_TOP
340
0
  0
ENDTAB
  0
ENDSEC
  0
SECTION
  2
BLOCKS
  0
BLOCK
  5
D
100
AcDbEntity
  8
0
100
AcDbBlockBegin
  2
*MODEL_SPACE
 70
     0
 10
0.0
 20
0.0
 30
0.0
  3
*MODEL_SPACE
  1

  0
ENDBLK
  5
E
100
AcDbEntity
  8
0
100
AcDbBlockEnd
  0
BLOCK
  5
F
100
AcDbEntity
 67
     1
  8
0
100
AcDbBlockBegin
  2
*PAPER_SPACE
 70
     0
 10
0.0
 20
0.0
 30
0.0
  3
*PAPER_SPACE
  1

  0
ENDBLK
  5
10
100
AcDbEntity
 67
     1
  8
0
100
AcDbBlockEnd
  0
BLOCK
  5
E4
100
AcDbEntity
  8
0
100
AcDbBlockBegin
  2
D1050_2_TOP
 70
     0
 10
0.0
 20
0.0
 30
0.0
  3

  1

  0
ELLIPSE
  5
E5
100
AcDbEntity
  8
1
  6
Continuous
 62
    35
100
AcDbEllipse
 10
11.632055
 20
4.324997
 30
0.0
 11
0.0000000000000012
 21
1.0000000000001015
 31
0.0
210
0.0
220
0.0
230
1.0
 40
0.267949
 41
1.5707963267948966
 42
3.1415926535897931
  0
ELLIPSE
  5
E6
100
AcDbEntity
  8
1
  6
Continuous
 62
    35
100
AcDbEllipse
 10
11.632055
 20
-4.325027
 30
0.0
 11
0.0000000000000012
 21
1.0000000000000051
 31
0.0
210
0.0
220
0.0
230
1.0
 40
0.267949
 41
0.0000126604715065
 42
1.5707963267948966
  0
ARC
  5
E7
100
AcDbEntity
  8
1
  6
Continuous
 62
    35
100
AcDbCircle
 10
6.2
 20
0.0
 30
0.0
 40
3.324
100
AcDbArc
 50
122.786916
 51
237.213084
  0
CIRCLE
  5
E8
100
AcDbEntity
  8
1
  6
Continuous
 62
    35
100
AcDbCircle
 10
6.2
 20
-10.450165
 30
0.0
 40
3.15
  0
CIRCLE
  5
E9
100
AcDbEntity
  8
1
  6
Continuous
 62
    35
100
AcDbCircle
 10
6.2
 20
10.45015
 30
0.0
 40
2.8
  0
CIRCLE
  5
EA
100
AcDbEntity
  8
1
  6
Continuous
 62
    35
100
AcDbCircle
 10
6.2
 20
0.0
 30
0.0
 40
1.5
  0
CIRCLE
  5
EB
100
AcDbEntity
  8
1
  6
Continuous
 62
    35
100
AcDbCircle
 10
6.2
 20
10.45015
 30
0.0
 40
3.15
  0
CIRCLE
  5
EC
100
AcDbEntity
  8
1
  6
Continuous
 62
    35
100
AcDbCircle
 10
6.2
 20
-10.450165
 30
0.0
 40
2.8
  0
LINE
  5
ED
100
AcDbEntity
  8
1
  6
Continuous
 62
    35
100
AcDbLine
 10
0.5
 20
-3.325015
 30
0.0
 11
0.5
 21
-3.324997
 31
0.0
  0
LINE
  5
EE
100
AcDbEntity
  8
1
  6
Continuous
 62
    35
100
AcDbLine
 10
6.5
 20
-20.609906
 30
0.0
 11
6.150269
 21
-21.387533
 31
0.0
  0
LINE
  5
EF
100
AcDbEntity
  8
1
  6
Continuous
 62
    35
100
AcDbLine
 10
11.9
 20
-3.325015
 30
0.0
 11
11.9
 21
-3.325012
 31
0.0
  0
LINE
  5
F0
100
AcDbEntity
  8
1
  6
Continuous
 62
    35
100
AcDbLine
 10
6.5
 20
-18.417881
 30
0.0
 11
6.150269
 21
-19.195508
 31
0.0
  0
LINE
  5
F1
100
AcDbEntity
  8
1
  6
Continuous
 62
    35
100
AcDbLine
 10
11.2
 20
-3.324966
 30
0.0
 11
9.2
 21
-3.324966
 31
0.0
  0
LINE
  5
F2
100
AcDbEntity
  8
1
  6
Continuous
 62
    35
100
AcDbLine
 10
6.5
 20
-17.905373
 30
0.0
 11
6.5
 21
-18.417881
 31
0.0
  0
LINE
  5
F3
100
AcDbEntity
  8
1
  6
Continuous
 62
    35
100
AcDbLine
 10
0.5
 20
6.530017
 30
0.0
 11
0.0
 21
6.530017
 31
0.0
  0
LINE
  5
F4
100
AcDbEntity
  8
1
  6
Continuous
 62
    35
100
AcDbLine
 10
6.5
 20
-18.417789
 30
0.0
 11
11.9
 21
-18.417789
 31
0.0
  0
LINE
  5
F5
100
AcDbEntity
  8
1
  6
Continuous
 62
    35
100
AcDbLine
 10
11.9
 20
15.0
 30
0.0
 11
0.0
 21
15.0
 31
0.0
  0
LINE
  5
F6
100
AcDbEntity
  8
1
  6
Continuous
 62
    35
100
AcDbLine
 10
0.350046
 20
2.5
 30
0.0
 11
0.350046
 21
-2.5
 31
0.0
  0
LINE
  5
F7
100
AcDbEntity
  8
1
  6
Continuous
 62
    35
100
AcDbLine
 10
0.0
 20
-8.500031
 30
0.0
 11
0.0
 21
-8.499955
 31
0.0
  0
LINE
  5
F8
100
AcDbEntity
  8
1
  6
Continuous
 62
    35
100
AcDbLine
 10
4.4
 20
-3.323
 30
0.0
 11
4.4
 21
-2.794455
 31
0.0
  0
LINE
  5
F9
100
AcDbEntity
  8
1
  6
Continuous
 62
    35
100
AcDbLine
 10
8.501629
 20
8.855642
 30
0.0
 11
4.605477
 21
12.751794
 31
0.0
  0
LINE
  5
FA
100
AcDbEntity
  8
1
  6
Continuous
 62
    35
100
AcDbLine
 10
6.150269
 20
15.713322
 30
0.0
 11
6.150269
 21
17.003462
 31
0.0
  0
LINE
  5
FB
100
AcDbEntity
  8
1
  6
Continuous
 62
    35
100
AcDbLine
 10
6.2
 20
-3.324
 30
0.0
 11
6.2
 21
-3.325
 31
0.0
  0
LINE
  5
FC
100
AcDbEntity
  8
1
  6
Continuous
 62
    35
100
AcDbLine
 10
6.150269
 20
21.387511
 30
0.0
 11
6.5
 21
20.609883
 31
0.0
  0
LINE
  5
FD
100
AcDbEntity
  8
1
  6
Continuous
 62
    35
100
AcDbLine
 10
6.150269
 20
17.003462
 30
0.0
 11
6.5
 21
16.225834
 31
0.0
  0
LINE
  5
FE
100
AcDbEntity
  8
1
  6
Continuous
 62
    35
100
AcDbLine
 10
0.0
 20
-4.0
 30
0.0
 11
0.5
 21
-4.0
 31
0.0
  0
LINE
  5
FF
100
AcDbEntity
  8
1
  6
Continuous
 62
    35
100
AcDbLine
 10
6.5
 20
20.609883
 30
0.0
 11
6.5
 21
20.097405
 31
0.0
  0
LINE
  5
100
100
AcDbEntity
  8
1
  6
Continuous
 62
    35
100
AcDbLine
 10
11.9
 20
-3.325015
 30
0.0
 11
11.632052
 21
-3.325027
 31
0.0
  0
LINE
  5
101
100
AcDbEntity
  8
1
  6
Continuous
 62
    35
100
AcDbLine
 10
6.5
 20
-22.289451
 30
0.0
 11
6.5
 21
-22.80193
 31
0.0
  0
LINE
  5
102
100
AcDbEntity
  8
1
  6
Continuous
 62
    35
100
AcDbLine
 10
0.5
 20
4.324997
 30
0.0
 11
11.364106
 21
4.324997
 31
0.0
  0
LINE
  5
103
100
AcDbEntity
  8
1
  6
Continuous
 62
    35
100
AcDbLine
 10
6.5
 20
18.417789
 30
0.0
 11
11.9
 21
18.417789
 31
0.0
  0
LINE
  5
104
100
AcDbEntity
  8
1
  6
Continuous
 62
    35
100
AcDbLine
 10
6.150269
 20
-21.387533
 30
0.0
 11
6.150269
 21
-20.097406
 31
0.0
  0
LINE
  5
105
100
AcDbEntity
  8
1
  6
Continuous
 62
    35
100
AcDbLine
 10
6.5
 20
20.609834
 30
0.0
 11
11.9
 21
20.609834
 31
0.0
  0
LINE
  5
106
100
AcDbEntity
  8
1
  6
Continuous
 62
    35
100
AcDbLine
 10
6.150269
 20
20.097398
 30
0.0
 11
11.9
 21
20.097398
 31
0.0
  0
LINE
  5
107
100
AcDbEntity
  8
1
  6
Continuous
 62
    35
100
AcDbLine
 10
6.5
 20
-16.225744
 30
0.0
 11
11.9
 21
-16.225744
 31
0.0
  0
LINE
  5
108
100
AcDbEntity
  8
1
  6
Continuous
 62
    35
100
AcDbLine
 10
4.4
 20
3.323
 30
0.0
 11
4.4
 21
2.794455
 31
0.0
  0
LINE
  5
109
100
AcDbEntity
  8
1
  6
Continuous
 62
    35
100
AcDbLine
 10
6.150269
 20
-19.195508
 30
0.0
 11
6.150269
 21
-17.905368
 31
0.0
  0
LINE
  5
10A
100
AcDbEntity
  8
1
  6
Continuous
 62
    35
100
AcDbLine
 10
11.9
 20
-15.00001
 30
0.0
 11
0.0
 21
-15.00001
 31
0.0
  0
LINE
  5
10B
100
AcDbEntity
  8
1
  6
Continuous
 62
    35
100
AcDbLine
 10
11.364106
 20
5.47374
 30
0.0
 11
0.5
 21
5.47374
 31
0.0
  0
LINE
  5
10C
100
AcDbEntity
  8
1
  6
Continuous
 62
    35
100
AcDbLine
 10
11.9
 20
24.999985
 30
0.0
 11
11.9
 21
-25.000015
 31
0.0
  0
LINE
  5
10D
100
AcDbEntity
  8
1
  6
Continuous
 62
    35
100
AcDbLine
 10
11.9
 20
3.323
 30
0.0
 11
0.5
 21
3.323
 31
0.0
  0
LINE
  5
10E
100
AcDbEntity
  8
1
  6
Continuous
 62
    35
100
AcDbLine
 10
0.0
 20
8.500031
 30
0.0
 11
0.0
 21
8.499955
 31
0.0
  0
LINE
  5
10F
100
AcDbEntity
  8
1
  6
Continuous
 62
    35
100
AcDbLine
 10
0.5
 20
-15.00001
 30
0.0
 11
0.5
 21
15.0
 31
0.0
  0
LINE
  5
110
100
AcDbEntity
  8
1
  6
Continuous
 62
    35
100
AcDbLine
 10
11.364106
 20
5.47374
 30
0.0
 11
11.364106
 21
4.324997
 31
0.0
  0
LINE
  5
111
100
AcDbEntity
  8
1
  6
Continuous
 62
    35
100
AcDbLine
 10
11.9
 20
24.999985
 30
0.0
 11
0.0
 21
24.999985
 31
0.0
  0
LINE
  5
112
100
AcDbEntity
  8
1
  6
Continuous
 62
    35
100
AcDbLine
 10
6.150269
 20
17.90536
 30
0.0
 11
6.150269
 21
19.195486
 31
0.0
  0
LINE
  5
113
100
AcDbEntity
  8
1
  6
Continuous
 62
    35
100
AcDbLine
 10
6.150269
 20
-17.003484
 30
0.0
 11
11.9
 21
-17.003484
 31
0.0
  0
LINE
  5
114
100
AcDbEntity
  8
1
  6
Continuous
 62
    35
100
AcDbLine
 10
7.794523
 20
-8.148535
 30
0.0
 11
3.898371
 21
-12.044687
 31
0.0
  0
LINE
  5
115
100
AcDbEntity
  8
1
  6
Continuous
 62
    35
100
AcDbLine
 10
0.0
 20
12.0
 30
0.0
 11
0.5
 21
12.0
 31
0.0
  0
LINE
  5
116
100
AcDbEntity
  8
1
  6
Continuous
 62
    35
100
AcDbLine
 10
6.150269
 20
-15.713331
 30
0.0
 11
11.9
 21
-15.713331
 31
0.0
  0
LINE
  5
117
100
AcDbEntity
  8
1
  6
Continuous
 62
    35
100
AcDbLine
 10
6.150269
 20
19.195486
 30
0.0
 11
11.9
 21
19.195486
 31
0.0
  0
LINE
  5
118
100
AcDbEntity
  8
1
  6
Continuous
 62
    35
100
AcDbLine
 10
6.150269
 20
19.195486
 30
0.0
 11
6.5
 21
18.417859
 31
0.0
  0
LINE
  5
119
100
AcDbEntity
  8
1
  6
Continuous
 62
    35
100
AcDbLine
 10
6.150269
 20
-19.195508
 30
0.0
 11
11.9
 21
-19.195508
 31
0.0
  0
LINE
  5
11A
100
AcDbEntity
  8
1
  6
Continuous
 62
    35
100
AcDbLine
 10
0.5
 20
-12.0
 30
0.0
 11
0.0
 21
-12.0
 31
0.0
  0
LINE
  5
11B
100
AcDbEntity
  8
1
  6
Continuous
 62
    35
100
AcDbLine
 10
11.9
 20
-3.324997
 30
0.0
 11
0.5
 21
-3.324997
 31
0.0
  0
LINE
  5
11C
100
AcDbEntity
  8
1
  6
Continuous
 62
    35
100
AcDbLine
 10
11.364106
 20
-4.325027
 30
0.0
 11
0.5
 21
-4.325027
 31
0.0
  0
LINE
  5
11D
100
AcDbEntity
  8
1
  6
Continuous
 62
    35
100
AcDbLine
 10
0.5
 20
3.325
 30
0.0
 11
0.5
 21
3.324997
 31
0.0
  0
LINE
  5
11E
100
AcDbEntity
  8
1
  6
Continuous
 62
    35
100
AcDbLine
 10
6.5
 20
22.801908
 30
0.0
 11
6.5
 21
22.289438
 31
0.0
  0
LINE
  5
11F
100
AcDbEntity
  8
1
  6
Continuous
 62
    35
100
AcDbLine
 10
6.150269
 20
22.289435
 30
0.0
 11
6.150269
 21
23.579535
 31
0.0
  0
LINE
  5
120
100
AcDbEntity
  8
1
  6
Continuous
 62
    35
100
AcDbLine
 10
6.150269
 20
-22.289443
 30
0.0
 11
11.9
 21
-22.289443
 31
0.0
  0
LINE
  5
121
100
AcDbEntity
  8
1
  6
Continuous
 62
    35
100
AcDbLine
 10
6.150269
 20
15.713322
 30
0.0
 11
11.9
 21
15.713322
 31
0.0
  0
LINE
  5
122
100
AcDbEntity
  8
1
  6
Continuous
 62
    35
100
AcDbLine
 10
6.5
 20
16.225744
 30
0.0
 11
11.9
 21
16.225744
 31
0.0
  0
LINE
  5
123
100
AcDbEntity
  8
1
  6
Continuous
 62
    35
100
AcDbLine
 10
6.5
 20
-22.801879
 30
0.0
 11
11.9
 21
-22.801879
 31
0.0
  0
LINE
  5
124
100
AcDbEntity
  8
1
  6
Continuous
 62
    35
100
AcDbLine
 10
6.150269
 20
-23.579557
 30
0.0
 11
6.150269
 21
-22.289443
 31
0.0
  0
LINE
  5
125
100
AcDbEntity
  8
1
  6
Continuous
 62
    35
100
AcDbLine
 10
0.5
 20
7.469971
 30
0.0
 11
0.0
 21
7.469971
 31
0.0
  0
LINE
  5
126
100
AcDbEntity
  8
1
  6
Continuous
 62
    35
100
AcDbLine
 10
8.501629
 20
-8.855642
 30
0.0
 11
4.605477
 21
-12.751794
 31
0.0
  0
LINE
  5
127
100
AcDbEntity
  8
1
  6
Continuous
 62
    35
100
AcDbLine
 10
7.794523
 20
8.148535
 30
0.0
 11
3.898371
 21
12.044687
 31
0.0
  0
LINE
  5
128
100
AcDbEntity
  8
1
  6
Continuous
 62
    35
100
AcDbLine
 10
11.364106
 20
-5.47377
 30
0.0
 11
11.9
 21
-8.937844
 31
0.0
  0
LINE
  5
129
100
AcDbEntity
  8
1
  6
Continuous
 62
    35
100
AcDbLine
 10
0.350039
 20
-2.5
 30
0.0
 11
0.0
 21
-2.5
 31
0.0
  0
LINE
  5
12A
100
AcDbEntity
  8
1
  6
Continuous
 62
    35
100
AcDbLine
 10
6.5
 20
-16.225857
 30
0.0
 11
6.150269
 21
-17.003484
 31
0.0
  0
LINE
  5
12B
100
AcDbEntity
  8
1
  6
Continuous
 62
    35
100
AcDbLine
 10
6.150269
 20
20.097398
 30
0.0
 11
6.150269
 21
21.387511
 31
0.0
  0
LINE
  5
12C
100
AcDbEntity
  8
1
  6
Continuous
 62
    35
100
AcDbLine
 10
11.9
 20
-25.000015
 30
0.0
 11
0.0
 21
-25.000015
 31
0.0
  0
LINE
  5
12D
100
AcDbEntity
  8
1
  6
Continuous
 62
    35
100
AcDbLine
 10
0.0
 20
8.499955
 30
0.0
 11
0.5
 21
8.499955
 31
0.0
  0
LINE
  5
12E
100
AcDbEntity
  8
1
  6
Continuous
 62
    35
100
AcDbLine
 10
0.5
 20
15.000015
 30
0.0
 11
0.5
 21
15.0
 31
0.0
  0
LINE
  5
12F
100
AcDbEntity
  8
1
  6
Continuous
 62
    35
100
AcDbLine
 10
9.2
 20
-3.324966
 30
0.0
 11
6.199975
 21
-3.324966
 31
0.0
  0
LINE
  5
130
100
AcDbEntity
  8
1
  6
Continuous
 62
    35
100
AcDbLine
 10
6.5
 20
18.417859
 30
0.0
 11
6.5
 21
17.905372
 31
0.0
  0
LINE
  5
131
100
AcDbEntity
  8
1
  6
Continuous
 62
    35
100
AcDbLine
 10
6.150269
 20
23.579535
 30
0.0
 11
6.5
 21
22.801908
 31
0.0
  0
LINE
  5
132
100
AcDbEntity
  8
1
  6
Continuous
 62
    35
100
AcDbLine
 10
0.5
 20
-7.469971
 30
0.0
 11
0.0
 21
-7.469971
 31
0.0
  0
LINE
  5
133
100
AcDbEntity
  8
1
  6
Continuous
 62
    35
100
AcDbLine
 10
11.9
 20
3.323
 30
0.0
 11
11.9
 21
3.324997
 31
0.0
  0
LINE
  5
134
100
AcDbEntity
  8
1
  6
Continuous
 62
    35
100
AcDbLine
 10
11.9
 20
24.065842
 30
0.0
 11
0.0
 21
24.065842
 31
0.0
  0
LINE
  5
135
100
AcDbEntity
  8
1
  6
Continuous
 62
    35
100
AcDbLine
 10
6.150269
 20
17.90536
 30
0.0
 11
11.9
 21
17.90536
 31
0.0
  0
LINE
  5
136
100
AcDbEntity
  8
1
  6
Continuous
 62
    35
100
AcDbLine
 10
6.150269
 20
22.289435
 30
0.0
 11
11.9
 21
22.289435
 31
0.0
  0
LINE
  5
137
100
AcDbEntity
  8
1
  6
Continuous
 62
    35
100
AcDbLine
 10
6.150269
 20
-20.097406
 30
0.0
 11
11.9
 21
-20.097406
 31
0.0
  0
LINE
  5
138
100
AcDbEntity
  8
1
  6
Continuous
 62
    35
100
AcDbLine
 10
0.5
 20
-15.000046
 30
0.0
 11
0.5
 21
-15.00001
 31
0.0
  0
LINE
  5
139
100
AcDbEntity
  8
1
  6
Continuous
 62
    35
100
AcDbLine
 10
0.5
 20
6.830017
 30
0.0
 11
0.0
 21
6.830017
 31
0.0
  0
LINE
  5
13A
100
AcDbEntity
  8
1
  6
Continuous
 62
    35
100
AcDbLine
 10
0.0
 20
24.999985
 30
0.0
 11
0.0
 21
-25.000015
 31
0.0
  0
LINE
  5
13B
100
AcDbEntity
  8
1
  6
Continuous
 62
    35
100
AcDbLine
 10
0.350046
 20
2.5
 30
0.0
 11
0.5
 21
2.5
 31
0.0
  0
LINE
  5
13C
100
AcDbEntity
  8
1
  6
Continuous
 62
    35
100
AcDbLine
 10
6.150269
 20
23.579535
 30
0.0
 11
11.9
 21
23.579535
 31
0.0
  0
LINE
  5
13D
100
AcDbEntity
  8
1
  6
Continuous
 62
    35
100
AcDbLine
 10
6.5
 20
22.801879
 30
0.0
 11
11.9
 21
22.801879
 31
0.0
  0
LINE
  5
13E
100
AcDbEntity
  8
1
  6
Continuous
 62
    35
100
AcDbLine
 10
6.5
 20
-15.71334
 30
0.0
 11
6.5
 21
-16.225857
 31
0.0
  0
LINE
  5
13F
100
AcDbEntity
  8
1
  6
Continuous
 62
    35
100
AcDbLine
 10
6.5
 20
-20.097406
 30
0.0
 11
6.5
 21
-20.609906
 31
0.0
  0
LINE
  5
140
100
AcDbEntity
  8
1
  6
Continuous
 62
    35
100
AcDbLine
 10
11.364106
 20
-5.47377
 30
0.0
 11
0.5
 21
-5.47377
 31
0.0
  0
LINE
  5
141
100
AcDbEntity
  8
1
  6
Continuous
 62
    35
100
AcDbLine
 10
11.364106
 20
-5.47377
 30
0.0
 11
11.364106
 21
-4.325027
 31
0.0
  0
LINE
  5
142
100
AcDbEntity
  8
1
  6
Continuous
 62
    35
100
AcDbLine
 10
11.9
 20
3.324997
 30
0.0
 11
11.632055
 21
3.324997
 31
0.0
  0
LINE
  5
143
100
AcDbEntity
  8
1
  6
Continuous
 62
    35
100
AcDbLine
 10
6.150269
 20
21.387511
 30
0.0
 11
11.9
 21
21.387511
 31
0.0
  0
LINE
  5
144
100
AcDbEntity
  8
1
  6
Continuous
 62
    35
100
AcDbLine
 10
6.150269
 20
-23.579557
 30
0.0
 11
11.9
 21
-23.579557
 31
0.0
  0
LINE
  5
145
100
AcDbEntity
  8
1
  6
Continuous
 62
    35
100
AcDbLine
 10
0.0
 20
2.5
 30
0.0
 11
0.350039
 21
2.5
 31
0.0
  0
LINE
  5
146
100
AcDbEntity
  8
1
  6
Continuous
 62
    35
100
AcDbLine
 10
0.5
 20
-8.499955
 30
0.0
 11
0.0
 21
-8.499955
 31
0.0
  0
LINE
  5
147
100
AcDbEntity
  8
1
  6
Continuous
 62
    35
100
AcDbLine
 10
9.9
 20
3.323
 30
0.0
 11
9.9
 21
-3.324966
 31
0.0
  0
LINE
  5
148
100
AcDbEntity
  8
1
  6
Continuous
 62
    35
100
AcDbLine
 10
6.150269
 20
-17.003484
 30
0.0
 11
6.150269
 21
-15.713331
 31
0.0
  0
LINE
  5
149
100
AcDbEntity
  8
1
  6
Continuous
 62
    35
100
AcDbLine
 10
11.9
 20
8.937808
 30
0.0
 11
11.364106
 21
5.47374
 31
0.0
  0
LINE
  5
14A
100
AcDbEntity
  8
1
  6
Continuous
 62
    35
100
AcDbLine
 10
0.5
 20
4.0
 30
0.0
 11
0.0
 21
4.0
 31
0.0
  0
LINE
  5
14B
100
AcDbEntity
  8
1
  6
Continuous
 62
    35
100
AcDbLine
 10
6.5
 20
16.225834
 30
0.0
 11
6.5
 21
15.713327
 31
0.0
  0
LINE
  5
14C
100
AcDbEntity
  8
1
  6
Continuous
 62
    35
100
AcDbLine
 10
6.150269
 20
-17.905368
 30
0.0
 11
11.9
 21
-17.905368
 31
0.0
  0
LINE
  5
14D
100
AcDbEntity
  8
1
  6
Continuous
 62
    35
100
AcDbLine
 10
0.5
 20
-2.5
 30
0.0
 11
0.350046
 21
-2.5
 31
0.0
  0
LINE
  5
14E
100
AcDbEntity
  8
1
  6
Continuous
 62
    35
100
AcDbLine
 10
11.9
 20
-24.065872
 30
0.0
 11
0.0
 21
-24.065872
 31
0.0
  0
LINE
  5
14F
100
AcDbEntity
  8
1
  6
Continuous
 62
    35
100
AcDbLine
 10
6.150269
 20
17.003462
 30
0.0
 11
11.9
 21
17.003462
 31
0.0
  0
LINE
  5
150
100
AcDbEntity
  8
1
  6
Continuous
 62
    35
100
AcDbLine
 10
6.5
 20
-22.80193
 30
0.0
 11
6.150269
 21
-23.579557
 31
0.0
  0
LINE
  5
151
100
AcDbEntity
  8
1
  6
Continuous
 62
    35
100
AcDbLine
 10
6.150269
 20
-21.387533
 30
0.0
 11
11.9
 21
-21.387533
 31
0.0
  0
LINE
  5
152
100
AcDbEntity
  8
1
  6
Continuous
 62
    35
100
AcDbLine
 10
6.5
 20
-20.609834
 30
0.0
 11
11.9
 21
-20.609834
 31
0.0
  0
LINE
  5
153
100
AcDbEntity
  8
1
  6
Continuous
 62
    35
100
AcDbLine
 10
0.5
 20
-3.325012
 30
0.0
 11
0.5
 21
-3.325027
 31
0.0
  0
ENDBLK
  5
154
100
AcDbEntity
  8
0
100
AcDbBlockEnd
  0
ENDSEC
  0
SECTION
  2
ENTITIES
  0
LINE
  5
2A
100
AcDbEntity
  8
1
  6
Continuous
 62
     2
100
AcDbLine
 10
4.05
 20
-23.999928
 30
0.0
 11
8.1
 21
-23.999928
 31
0.0
  0
LINE
  5
2C
100
AcDbEntity
  8
1
  6
Continuous
 62
     2
100
AcDbLine
 10
6.699999
 20
21.821666
 30
0.0
 11
7.054973
 21
22.610952
 31
0.0
  0
LINE
  5
2D
100
AcDbEntity
  8
1
  6
Continuous
 62
     2
100
AcDbLine
 10
6.700007
 20
-21.821524
 30
0.0
 11
7.054985
 21
-22.610813
 31
0.0
  0
LINE
  5
2E
100
AcDbEntity
  8
1
  6
Continuous
 62
     2
100
AcDbLine
 10
6.7
 20
19.649858
 30
0.0
 11
4.05
 21
19.649858
 31
0.0
  0
LINE
  5
2F
100
AcDbEntity
  8
1
  6
Continuous
 62
     2
100
AcDbLine
 10
6.25
 20
1.300069
 30
0.0
 11
6.25
 21
-1.299931
 31
0.0
  0
LINE
  5
30
100
AcDbEntity
  8
1
  6
Continuous
 62
     2
100
AcDbLine
 10
6.699999
 20
19.64986
 30
0.0
 11
7.054974
 21
20.439147
 31
0.0
  0
LINE
  5
31
100
AcDbEntity
  8
1
  6
Continuous
 62
     2
100
AcDbLine
 10
6.699989
 20
-19.649725
 30
0.0
 11
7.054956
 21
-20.439008
 31
0.0
  0
LINE
  5
32
100
AcDbEntity
  8
1
  6
Continuous
 62
     2
100
AcDbLine
 10
6.7
 20
-19.193983
 30
0.0
 11
6.699989
 21
-19.649725
 31
0.0
  0
LINE
  5
33
100
AcDbEntity
  8
1
  6
Continuous
 62
     2
100
AcDbLine
 10
6.7
 20
17.478052
 30
0.0
 11
4.05
 21
17.478052
 31
0.0
  0
LINE
  5
34
100
AcDbEntity
  8
1
  6
Continuous
 62
     2
100
AcDbLine
 10
6.700007
 20
-17.477926
 30
0.0
 11
4.05
 21
-17.477926
 31
0.0
  0
LINE
  5
35
100
AcDbEntity
  8
1
  6
Continuous
 62
    92
100
AcDbLine
 10
1.045044
 20
20.439142
 30
0.0
 11
4.05
 21
20.439142
 31
0.0
  0
LINE
  5
36
100
AcDbEntity
  8
1
  6
Continuous
 62
    92
100
AcDbLine
 10
1.045043
 20
21.197449
 30
0.0
 11
4.05
 21
21.197449
 31
0.0
  0
LINE
  5
37
100
AcDbEntity
  8
1
  6
Continuous
 62
    92
100
AcDbLine
 10
1.045015
 20
22.610946
 30
0.0
 11
1.045043
 21
21.197449
 31
0.0
  0
LINE
  5
38
100
AcDbEntity
  8
1
  6
Continuous
 62
    92
100
AcDbLine
 10
1.045015
 20
22.610946
 30
0.0
 11
4.05
 21
22.610946
 31
0.0
  0
LINE
  5
39
100
AcDbEntity
  8
1
  6
Continuous
 62
    92
100
AcDbLine
 10
4.05
 20
23.132202
 30
0.0
 11
0.0
 21
23.132202
 31
0.0
  0
LINE
  5
3A
100
AcDbEntity
  8
1
  6
Continuous
 62
    92
100
AcDbLine
 10
1.045046
 20
14.68205
 30
0.0
 11
4.05
 21
14.68205
 31
0.0
  0
LINE
  5
3B
100
AcDbEntity
  8
1
  6
Continuous
 62
    92
100
AcDbLine
 10
1.045019
 20
16.095542
 30
0.0
 11
1.045046
 21
14.68205
 31
0.0
  0
LINE
  5
3C
100
AcDbEntity
  8
1
  6
Continuous
 62
    92
100
AcDbLine
 10
1.045019
 20
16.095542
 30
0.0
 11
4.05
 21
16.095542
 31
0.0
  0
LINE
  5
3D
100
AcDbEntity
  8
1
  6
Continuous
 62
    92
100
AcDbLine
 10
1.045045
 20
16.853849
 30
0.0
 11
4.05
 21
16.853849
 31
0.0
  0
LINE
  5
3E
100
AcDbEntity
  8
1
  6
Continuous
 62
     2
100
AcDbLine
 10
7.054982
 20
-18.26721
 30
0.0
 11
7.054955
 21
-16.853716
 31
0.0
  0
LINE
  5
3F
100
AcDbEntity
  8
1
  6
Continuous
 62
    92
100
AcDbLine
 10
1.4
 20
-21.821531
 30
0.0
 11
4.05
 21
-21.821531
 31
0.0
  0
LINE
  5
40
100
AcDbEntity
  8
1
  6
Continuous
 62
     2
100
AcDbLine
 10
7.054981
 20
-19.025515
 30
0.0
 11
4.05
 21
-19.025515
 31
0.0
  0
LINE
  5
41
100
AcDbEntity
  8
1
  6
Continuous
 62
    92
100
AcDbLine
 10
0.0
 20
28.000061
 30
0.0
 11
4.05
 21
28.000061
 31
0.0
  0
LINE
  5
42
100
AcDbEntity
  8
1
  6
Continuous
 62
     2
100
AcDbLine
 10
7.054981
 20
-16.095408
 30
0.0
 11
4.05
 21
-16.095408
 31
0.0
  0
LINE
  5
43
100
AcDbEntity
  8
1
  6
Continuous
 62
     2
100
AcDbLine
 10
4.05
 20
-7.349931
 30
0.0
 11
4.05
 21
-3.499931
 31
0.0
  0
LINE
  5
44
100
AcDbEntity
  8
1
  6
Continuous
 62
     2
100
AcDbLine
 10
4.05
 20
23.132213
 30
0.0
 11
8.1
 21
23.132213
 31
0.0
  0
LINE
  5
45
100
AcDbEntity
  8
1
  6
Continuous
 62
     2
100
AcDbLine
 10
6.700007
 20
-21.821524
 30
0.0
 11
4.05
 21
-21.821524
 31
0.0
  0
LINE
  5
46
100
AcDbEntity
  8
1
  6
Continuous
 62
     2
100
AcDbLine
 10
4.05
 20
21.197457
 30
0.0
 11
7.054974
 21
21.197457
 31
0.0
  0
LINE
  5
47
100
AcDbEntity
  8
1
  6
Continuous
 62
     2
100
AcDbLine
 10
4.05
 20
18.267342
 30
0.0
 11
7.054974
 21
18.267342
 31
0.0
  0
LINE
  5
48
100
AcDbEntity
  8
1
  6
Continuous
 62
     2
100
AcDbLine
 10
7.054973
 20
22.610952
 30
0.0
 11
7.054974
 21
21.197457
 31
0.0
  0
LINE
  5
49
100
AcDbEntity
  8
1
  6
Continuous
 62
     2
100
AcDbLine
 10
4.05
 20
22.610952
 30
0.0
 11
7.054973
 21
22.610952
 31
0.0
  0
LINE
  5
4A
100
AcDbEntity
  8
1
  6
Continuous
 62
     2
100
AcDbLine
 10
7.054974
 20
19.025651
 30
0.0
 11
7.054974
 21
20.439147
 31
0.0
  0
LINE
  5
4B
100
AcDbEntity
  8
1
  6
Continuous
 62
     2
100
AcDbLine
 10
4.05
 20
19.025651
 30
0.0
 11
7.054974
 21
19.025651
 31
0.0
  0
LINE
  5
4C
100
AcDbEntity
  8
1
  6
Continuous
 62
     2
100
AcDbLine
 10
8.1
 20
26.500065
 30
0.0
 11
4.05
 21
26.500065
 31
0.0
  0
LINE
  5
4D
100
AcDbEntity
  8
1
  6
Continuous
 62
    92
100
AcDbLine
 10
1.4
 20
-17.477919
 30
0.0
 11
4.05
 21
-17.477919
 31
0.0
  0
LINE
  5
4E
100
AcDbEntity
  8
1
  6
Continuous
 62
    92
100
AcDbLine
 10
1.399993
 20
17.47806
 30
0.0
 11
4.05
 21
17.47806
 31
0.0
  0
LINE
  5
4F
100
AcDbEntity
  8
1
  6
Continuous
 62
    92
100
AcDbLine
 10
1.400001
 20
-17.47792
 30
0.0
 11
1.045026
 21
-18.267209
 31
0.0
  0
LINE
  5
50
100
AcDbEntity
  8
1
  6
Continuous
 62
    92
100
AcDbLine
 10
1.399993
 20
17.47806
 30
0.0
 11
1.045018
 21
18.267343
 31
0.0
  0
LINE
  5
51
100
AcDbEntity
  8
1
  6
Continuous
 62
    92
100
AcDbLine
 10
1.4
 20
17.478062
 30
0.0
 11
1.4
 21
16.932576
 31
0.0
  0
LINE
  5
52
100
AcDbEntity
  8
1
  6
Continuous
 62
    92
100
AcDbLine
 10
1.4
 20
-15.306112
 30
0.0
 11
4.05
 21
-15.306112
 31
0.0
  0
LINE
  5
53
100
AcDbEntity
  8
1
  6
Continuous
 62
    92
100
AcDbLine
 10
1.399993
 20
15.306261
 30
0.0
 11
4.05
 21
15.306261
 31
0.0
  0
LINE
  5
54
100
AcDbEntity
  8
1
  6
Continuous
 62
    92
100
AcDbLine
 10
1.400001
 20
-15.306114
 30
0.0
 11
1.045025
 21
-16.095404
 31
0.0
  0
LINE
  5
55
100
AcDbEntity
  8
1
  6
Continuous
 62
    92
100
AcDbLine
 10
4.05
 20
24.000061
 30
0.0
 11
0.0
 21
24.000061
 31
0.0
  0
LINE
  5
56
100
AcDbEntity
  8
1
  6
Continuous
 62
     2
100
AcDbLine
 10
8.1
 20
-4.799885
 30
0.0
 11
4.05
 21
-4.799885
 31
0.0
  0
LINE
  5
57
100
AcDbEntity
  8
1
  6
Continuous
 62
     2
100
AcDbLine
 10
4.05
 20
11.650064
 30
0.0
 11
4.05
 21
28.000065
 31
0.0
  0
LINE
  5
58
100
AcDbEntity
  8
1
  6
Continuous
 62
     2
100
AcDbLine
 10
6.699989
 20
-19.649725
 30
0.0
 11
4.05
 21
-19.649725
 31
0.0
  0
LINE
  5
59
100
AcDbEntity
  8
1
  6
Continuous
 62
     2
100
AcDbLine
 10
6.700007
 20
-17.477926
 30
0.0
 11
7.054982
 21
-18.26721
 31
0.0
  0
LINE
  5
5A
100
AcDbEntity
  8
1
  6
Continuous
 62
     2
100
AcDbLine
 10
6.7
 20
-19.193983
 30
0.0
 11
6.7
 21
-19.025508
 31
0.0
  0
LINE
  5
5B
100
AcDbEntity
  8
1
  6
Continuous
 62
     2
100
AcDbLine
 10
6.7
 20
15.306246
 30
0.0
 11
6.7
 21
14.682046
 31
0.0
  0
LINE
  5
5C
100
AcDbEntity
  8
1
  6
Continuous
 62
     2
100
AcDbLine
 10
6.700007
 20
-15.306128
 30
0.0
 11
4.05
 21
-15.306128
 31
0.0
  0
LINE
  5
5D
100
AcDbEntity
  8
1
  6
Continuous
 62
     2
100
AcDbLine
 10
6.700007
 20
-15.306128
 30
0.0
 11
7.054981
 21
-16.095408
 31
0.0
  0
LINE
  5
5E
100
AcDbEntity
  8
1
  6
Continuous
 62
     2
100
AcDbLine
 10
4.05
 20
16.853845
 30
0.0
 11
7.054975
 21
16.853845
 31
0.0
  0
LINE
  5
5F
100
AcDbEntity
  8
1
  6
Continuous
 62
    92
100
AcDbLine
 10
1.4
 20
19.194117
 30
0.0
 11
1.4
 21
19.025642
 31
0.0
  0
LINE
  5
60
100
AcDbEntity
  8
1
  6
Continuous
 62
    92
100
AcDbLine
 10
1.4
 20
19.194117
 30
0.0
 11
1.400011
 21
19.649858
 31
0.0
  0
LINE
  5
61
100
AcDbEntity
  8
1
  6
Continuous
 62
    92
100
AcDbLine
 10
1.400011
 20
19.649858
 30
0.0
 11
1.045044
 21
20.439142
 31
0.0
  0
LINE
  5
62
100
AcDbEntity
  8
1
  6
Continuous
 62
    92
100
AcDbLine
 10
1.400001
 20
-19.649726
 30
0.0
 11
1.045026
 21
-20.439014
 31
0.0
  0
LINE
  5
63
100
AcDbEntity
  8
1
  6
Continuous
 62
    92
100
AcDbLine
 10
1.85
 20
-1.299936
 30
0.0
 11
1.85
 21
1.300064
 31
0.0
  0
LINE
  5
64
100
AcDbEntity
  8
1
  6
Continuous
 62
    92
100
AcDbLine
 10
1.400011
 20
19.649858
 30
0.0
 11
4.05
 21
19.649858
 31
0.0
  0
LINE
  5
65
100
AcDbEntity
  8
1
  6
Continuous
 62
    92
100
AcDbLine
 10
1.4
 20
-19.649725
 30
0.0
 11
4.05
 21
-19.649725
 31
0.0
  0
LINE
  5
66
100
AcDbEntity
  8
1
  6
Continuous
 62
    92
100
AcDbLine
 10
1.4
 20
21.821659
 30
0.0
 11
1.4
 21
21.276173
 31
0.0
  0
LINE
  5
67
100
AcDbEntity
  8
1
  6
Continuous
 62
    92
100
AcDbLine
 10
1.399993
 20
21.821657
 30
0.0
 11
1.045015
 21
22.610946
 31
0.0
  0
LINE
  5
68
100
AcDbEntity
  8
1
  6
Continuous
 62
    92
100
AcDbLine
 10
1.400001
 20
-21.821533
 30
0.0
 11
1.045027
 21
-22.610819
 31
0.0
  0
LINE
  5
69
100
AcDbEntity
  8
1
  6
Continuous
 62
     2
100
AcDbLine
 10
4.05
 20
-23.132069
 30
0.0
 11
8.1
 21
-23.132069
 31
0.0
  0
LINE
  5
6A
100
AcDbEntity
  8
1
  6
Continuous
 62
     2
100
AcDbLine
 10
4.05
 20
14.68204
 30
0.0
 11
7.054975
 21
14.68204
 31
0.0
  0
LINE
  5
6B
100
AcDbEntity
  8
1
  6
Continuous
 62
    92
100
AcDbLine
 10
4.05
 20
-23.999931
 30
0.0
 11
0.0
 21
-23.999931
 31
0.0
  0
LINE
  5
6C
100
AcDbEntity
  8
1
  6
Continuous
 62
     2
100
AcDbLine
 10
7.054981
 20
-19.025515
 30
0.0
 11
7.054956
 21
-20.439008
 31
0.0
  0
LINE
  5
6D
100
AcDbEntity
  8
1
  6
Continuous
 62
    92
100
AcDbLine
 10
1.400002
 20
16.853844
 30
0.0
 11
1.400001
 21
16.932574
 31
0.0
  0
LINE
  5
6E
100
AcDbEntity
  8
1
  6
Continuous
 62
     2
100
AcDbLine
 10
4.05
 20
20.439147
 30
0.0
 11
7.054974
 21
20.439147
 31
0.0
  0
LINE
  5
6F
100
AcDbEntity
  8
1
  6
Continuous
 62
    92
100
AcDbLine
 10
1.4
 20
-19.649725
 30
0.0
 11
1.4
 21
-19.025526
 31
0.0
  0
LINE
  5
70
100
AcDbEntity
  8
1
  6
Continuous
 62
    92
100
AcDbLine
 10
1.400002
 20
21.197447
 30
0.0
 11
1.400001
 21
21.276171
 31
0.0
  0
LINE
  5
71
100
AcDbEntity
  8
1
  6
Continuous
 62
     2
100
AcDbLine
 10
6.7
 20
21.821665
 30
0.0
 11
6.7
 21
21.197465
 31
0.0
  0
LINE
  5
72
100
AcDbEntity
  8
1
  6
Continuous
 62
     2
100
AcDbLine
 10
6.699998
 20
-21.197314
 30
0.0
 11
6.699999
 21
-21.276038
 31
0.0
  0
LINE
  5
73
100
AcDbEntity
  8
1
  6
Continuous
 62
    92
100
AcDbLine
 10
1.4
 20
-17.477919
 30
0.0
 11
1.4
 21
-16.853719
 31
0.0
  0
LINE
  5
74
100
AcDbEntity
  8
1
  6
Continuous
 62
    92
100
AcDbLine
 10
1.399996
 20
19.025642
 30
0.0
 11
1.4
 21
19.194117
 31
0.0
  0
LINE
  5
75
100
AcDbEntity
  8
1
  6
Continuous
 62
    92
100
AcDbLine
 10
1.4
 20
15.306263
 30
0.0
 11
1.4
 21
14.760777
 31
0.0
  0
LINE
  5
76
100
AcDbEntity
  8
1
  6
Continuous
 62
    92
100
AcDbLine
 10
1.045018
 20
18.267343
 30
0.0
 11
4.05
 21
18.267343
 31
0.0
  0
LINE
  5
77
100
AcDbEntity
  8
1
  6
Continuous
 62
    92
100
AcDbLine
 10
1.045018
 20
18.267343
 30
0.0
 11
1.045045
 21
16.853849
 31
0.0
  0
LINE
  5
78
100
AcDbEntity
  8
1
  6
Continuous
 62
    92
100
AcDbLine
 10
1.045019
 20
19.025648
 30
0.0
 11
1.045044
 21
20.439142
 31
0.0
  0
LINE
  5
79
100
AcDbEntity
  8
1
  6
Continuous
 62
    92
100
AcDbLine
 10
1.045019
 20
19.025648
 30
0.0
 11
4.05
 21
19.025648
 31
0.0
  0
LINE
  5
7A
100
AcDbEntity
  8
1
  6
Continuous
 62
    92
100
AcDbLine
 10
0.0
 20
4.800018
 30
0.0
 11
4.05
 21
4.800018
 31
0.0
  0
LINE
  5
7B
100
AcDbEntity
  8
1
  6
Continuous
 62
    92
100
AcDbLine
 10
4.05
 20
-13.999924
 30
0.0
 11
0.0
 21
-13.999924
 31
0.0
  0
LINE
  5
7C
100
AcDbEntity
  8
1
  6
Continuous
 62
    92
100
AcDbLine
 10
4.05
 20
-4.800019
 30
0.0
 11
0.0
 21
-4.800019
 31
0.0
  0
LINE
  5
7D
100
AcDbEntity
  8
1
  6
Continuous
 62
    92
100
AcDbLine
 10
0.0
 20
-4.300018
 30
0.0
 11
4.05
 21
-4.300018
 31
0.0
  0
LINE
  5
7E
100
AcDbEntity
  8
1
  6
Continuous
 62
    92
100
AcDbLine
 10
4.05
 20
-27.999931
 30
0.0
 11
0.0
 21
-27.999931
 31
0.0
  0
LINE
  5
7F
100
AcDbEntity
  8
1
  6
Continuous
 62
     2
100
AcDbLine
 10
4.05
 20
4.800152
 30
0.0
 11
8.1
 21
4.800152
 31
0.0
  0
LINE
  5
80
100
AcDbEntity
  8
1
  6
Continuous
 62
     2
100
AcDbLine
 10
7.054955
 20
-16.853716
 30
0.0
 11
4.05
 21
-16.853716
 31
0.0
  0
LINE
  5
81
100
AcDbEntity
  8
1
  6
Continuous
 62
     2
100
AcDbLine
 10
4.05
 20
-4.299885
 30
0.0
 11
8.1
 21
-4.299885
 31
0.0
  0
LINE
  5
82
100
AcDbEntity
  8
1
  6
Continuous
 62
     2
100
AcDbLine
 10
7.054956
 20
-20.439008
 30
0.0
 11
4.05
 21
-20.439008
 31
0.0
  0
LINE
  5
83
100
AcDbEntity
  8
1
  6
Continuous
 62
    92
100
AcDbLine
 10
4.05
 20
26.500061
 30
0.0
 11
0.0
 21
26.500061
 31
0.0
  0
LINE
  5
84
100
AcDbEntity
  8
1
  6
Continuous
 62
     2
100
AcDbLine
 10
6.7
 20
19.649858
 30
0.0
 11
6.7
 21
19.025659
 31
0.0
  0
LINE
  5
85
100
AcDbEntity
  8
1
  6
Continuous
 62
     2
100
AcDbLine
 10
7.054975
 20
16.853845
 30
0.0
 11
7.054974
 21
18.267342
 31
0.0
  0
LINE
  5
86
100
AcDbEntity
  8
1
  6
Continuous
 62
     2
100
AcDbLine
 10
8.1
 20
-27.999928
 30
0.0
 11
4.05
 21
-27.999928
 31
0.0
  0
LINE
  5
87
100
AcDbEntity
  8
1
  6
Continuous
 62
     2
100
AcDbLine
 10
6.7
 20
21.821665
 30
0.0
 11
4.05
 21
21.821665
 31
0.0
  0
LINE
  5
88
100
AcDbEntity
  8
1
  6
Continuous
 62
     2
100
AcDbLine
 10
6.7
 20
-15.30613
 30
0.0
 11
6.7
 21
-14.760644
 31
0.0
  0
LINE
  5
89
100
AcDbEntity
  8
1
  6
Continuous
 62
     2
100
AcDbLine
 10
6.699999
 20
17.478054
 30
0.0
 11
7.054974
 21
18.267342
 31
0.0
  0
LINE
  5
8A
100
AcDbEntity
  8
1
  6
Continuous
 62
     2
100
AcDbLine
 10
6.699999
 20
15.306247
 30
0.0
 11
7.054975
 21
16.095537
 31
0.0
  0
LINE
  5
8B
100
AcDbEntity
  8
1
  6
Continuous
 62
     2
100
AcDbLine
 10
6.7
 20
15.306246
 30
0.0
 11
4.05
 21
15.306246
 31
0.0
  0
LINE
  5
8C
100
AcDbEntity
  8
1
  6
Continuous
 62
     2
100
AcDbLine
 10
6.7
 20
-17.477928
 30
0.0
 11
6.7
 21
-16.932442
 31
0.0
  0
LINE
  5
8D
100
AcDbEntity
  8
1
  6
Continuous
 62
    92
100
AcDbLine
 10
4.05
 20
-22.610819
 30
0.0
 11
1.045027
 21
-22.610819
 31
0.0
  0
LINE
  5
8E
100
AcDbEntity
  8
1
  6
Continuous
 62
    92
100
AcDbLine
 10
0.0
 20
-27.999931
 30
0.0
 11
0.0
 21
28.000061
 31
0.0
  0
LINE
  5
8F
100
AcDbEntity
  8
1
  6
Continuous
 62
    92
100
AcDbLine
 10
1.045025
 20
-14.681906
 30
0.0
 11
1.045025
 21
-16.095404
 31
0.0
  0
LINE
  5
90
100
AcDbEntity
  8
1
  6
Continuous
 62
     2
100
AcDbLine
 10
7.054957
 20
-21.197316
 30
0.0
 11
4.05
 21
-21.197316
 31
0.0
  0
LINE
  5
91
100
AcDbEntity
  8
1
  6
Continuous
 62
     2
100
AcDbLine
 10
4.05
 20
16.095537
 30
0.0
 11
7.054975
 21
16.095537
 31
0.0
  0
LINE
  5
92
100
AcDbEntity
  8
1
  6
Continuous
 62
     2
100
AcDbLine
 10
4.05
 20
-13.99992
 30
0.0
 11
8.1
 21
-13.99992
 31
0.0
  0
LINE
  5
93
100
AcDbEntity
  8
1
  6
Continuous
 62
     2
100
AcDbLine
 10
8.1
 20
-27.999928
 30
0.0
 11
8.1
 21
28.000065
 31
0.0
  0
LINE
  5
94
100
AcDbEntity
  8
1
  6
Continuous
 62
     2
100
AcDbLine
 10
4.05
 20
-27.999928
 30
0.0
 11
4.05
 21
-11.649931
 31
0.0
  0
LINE
  5
95
100
AcDbEntity
  8
1
  6
Continuous
 62
     2
100
AcDbLine
 10
6.699998
 20
-14.681912
 30
0.0
 11
6.699999
 21
-14.760642
 31
0.0
  0
LINE
  5
96
100
AcDbEntity
  8
1
  6
Continuous
 62
     2
100
AcDbLine
 10
4.05
 20
28.000065
 30
0.0
 11
8.1
 21
28.000065
 31
0.0
  0
LINE
  5
97
100
AcDbEntity
  8
1
  6
Continuous
 62
     2
100
AcDbLine
 10
6.7
 20
17.478052
 30
0.0
 11
6.7
 21
16.853853
 31
0.0
  0
LINE
  5
98
100
AcDbEntity
  8
1
  6
Continuous
 62
     2
100
AcDbLine
 10
6.699998
 20
-16.853711
 30
0.0
 11
6.699999
 21
-16.93244
 31
0.0
  0
LINE
  5
99
100
AcDbEntity
  8
1
  6
Continuous
 62
    92
100
AcDbLine
 10
1.400002
 20
14.682045
 30
0.0
 11
1.400001
 21
14.760775
 31
0.0
  0
LINE
  5
9A
100
AcDbEntity
  8
1
  6
Continuous
 62
    92
100
AcDbLine
 10
4.05
 20
14.000053
 30
0.0
 11
0.0
 21
14.000053
 31
0.0
  0
LINE
  5
9B
100
AcDbEntity
  8
1
  6
Continuous
 62
     2
100
AcDbLine
 10
4.05
 20
-26.499928
 30
0.0
 11
8.1
 21
-26.499928
 31
0.0
  0
LINE
  5
9C
100
AcDbEntity
  8
1
  6
Continuous
 62
    92
100
AcDbLine
 10
1.4
 20
-21.821531
 30
0.0
 11
1.4
 21
-21.197332
 31
0.0
  0
LINE
  5
9D
100
AcDbEntity
  8
1
  6
Continuous
 62
    92
100
AcDbLine
 10
4.05
 20
4.300018
 30
0.0
 11
0.0
 21
4.300018
 31
0.0
  0
LINE
  5
9E
100
AcDbEntity
  8
1
  6
Continuous
 62
    92
100
AcDbLine
 10
4.05
 20
-16.853712
 30
0.0
 11
1.045025
 21
-16.853712
 31
0.0
  0
LINE
  5
9F
100
AcDbEntity
  8
1
  6
Continuous
 62
    92
100
AcDbLine
 10
1.045025
 20
-16.853712
 30
0.0
 11
1.045026
 21
-18.267209
 31
0.0
  0
LINE
  5
A0
100
AcDbEntity
  8
1
  6
Continuous
 62
    92
100
AcDbLine
 10
4.05
 20
-18.267209
 30
0.0
 11
1.045026
 21
-18.267209
 31
0.0
  0
LINE
  5
A1
100
AcDbEntity
  8
1
  6
Continuous
 62
    92
100
AcDbLine
 10
4.05
 20
-19.025518
 30
0.0
 11
1.045026
 21
-19.025518
 31
0.0
  0
LINE
  5
A2
100
AcDbEntity
  8
1
  6
Continuous
 62
    92
100
AcDbLine
 10
1.399993
 20
15.306261
 30
0.0
 11
1.045019
 21
16.095542
 31
0.0
  0
LINE
  5
A3
100
AcDbEntity
  8
1
  6
Continuous
 62
    92
100
AcDbLine
 10
1.045026
 20
-19.025518
 30
0.0
 11
1.045026
 21
-20.439014
 31
0.0
  0
LINE
  5
A4
100
AcDbEntity
  8
1
  6
Continuous
 62
    92
100
AcDbLine
 10
4.05
 20
-20.439014
 30
0.0
 11
1.045026
 21
-20.439014
 31
0.0
  0
LINE
  5
A5
100
AcDbEntity
  8
1
  6
Continuous
 62
    92
100
AcDbLine
 10
4.05
 20
-21.197324
 30
0.0
 11
1.045026
 21
-21.197324
 31
0.0
  0
LINE
  5
A6
100
AcDbEntity
  8
1
  6
Continuous
 62
    92
100
AcDbLine
 10
1.045027
 20
-22.610819
 30
0.0
 11
1.045026
 21
-21.197324
 31
0.0
  0
LINE
  5
A7
100
AcDbEntity
  8
1
  6
Continuous
 62
     2
100
AcDbLine
 10
7.054954
 20
-14.681916
 30
0.0
 11
4.05
 21
-14.681916
 31
0.0
  0
LINE
  5
A8
100
AcDbEntity
  8
1
  6
Continuous
 62
    92
100
AcDbLine
 10
1.399993
 20
21.821657
 30
0.0
 11
4.05
 21
21.821657
 31
0.0
  0
LINE
  5
A9
100
AcDbEntity
  8
1
  6
Continuous
 62
     2
100
AcDbLine
 10
7.054975
 20
14.68204
 30
0.0
 11
7.054975
 21
16.095537
 31
0.0
  0
LINE
  5
AA
100
AcDbEntity
  8
1
  6
Continuous
 62
     2
100
AcDbLine
 10
4.05
 20
14.000057
 30
0.0
 11
8.1
 21
14.000057
 31
0.0
  0
LINE
  5
AB
100
AcDbEntity
  8
1
  6
Continuous
 62
    92
100
AcDbLine
 10
0.0
 20
-26.499931
 30
0.0
 11
4.05
 21
-26.499931
 31
0.0
  0
LINE
  5
AC
100
AcDbEntity
  8
1
  6
Continuous
 62
     2
100
AcDbLine
 10
6.7
 20
-21.821526
 30
0.0
 11
6.7
 21
-21.27604
 31
0.0
  0
LINE
  5
AD
100
AcDbEntity
  8
1
  6
Continuous
 62
     2
100
AcDbLine
 10
6.700004
 20
-19.025508
 30
0.0
 11
6.7
 21
-19.193983
 31
0.0
  0
LINE
  5
AE
100
AcDbEntity
  8
1
  6
Continuous
 62
     2
100
AcDbLine
 10
4.05
 20
24.000065
 30
0.0
 11
8.1
 21
24.000065
 31
0.0
  0
LINE
  5
AF
100
AcDbEntity
  8
1
  6
Continuous
 62
     2
100
AcDbLine
 10
4.05
 20
3.500069
 30
0.0
 11
4.05
 21
7.350064
 31
0.0
  0
LINE
  5
B0
100
AcDbEntity
  8
1
  6
Continuous
 62
    92
100
AcDbLine
 10
1.4
 20
-15.306112
 30
0.0
 11
1.4
 21
-14.681913
 31
0.0
  0
LINE
  5
B1
100
AcDbEntity
  8
1
  6
Continuous
 62
    92
100
AcDbLine
 10
4.05
 20
-16.095404
 30
0.0
 11
1.045025
 21
-16.095404
 31
0.0
  0
LINE
  5
B2
100
AcDbEntity
  8
1
  6
Continuous
 62
     2
100
AcDbLine
 10
7.054985
 20
-22.610813
 30
0.0
 11
7.054957
 21
-21.197316
 31
0.0
  0
LINE
  5
B3
100
AcDbEntity
  8
1
  6
Continuous
 62
    92
100
AcDbLine
 10
4.05
 20
-23.13208
 30
0.0
 11
0.0
 21
-23.13208
 31
0.0
  0
LINE
  5
B4
100
AcDbEntity
  8
1
  6
Continuous
 62
    92
100
AcDbLine
 10
4.05
 20
-14.681906
 30
0.0
 11
1.045025
 21
-14.681906
 31
0.0
  0
LINE
  5
B5
100
AcDbEntity
  8
1
  6
Continuous
 62
     2
100
AcDbLine
 10
7.054982
 20
-18.26721
 30
0.0
 11
4.05
 21
-18.26721
 31
0.0
  0
LINE
  5
B6
100
AcDbEntity
  8
1
  6
Continuous
 62
     2
100
AcDbLine
 10
7.054981
 20
-16.095408
 30
0.0
 11
7.054954
 21
-14.681916
 31
0.0
  0
LINE
  5
B7
100
AcDbEntity
  8
1
  6
Continuous
 62
     2
100
AcDbLine
 10
7.054985
 20
-22.610813
 30
0.0
 11
4.05
 21
-22.610813
 31
0.0
  0
LINE
  5
B8
100
AcDbEntity
  8
1
  6
Continuous
 62
     2
100
AcDbLine
 10
8.1
 20
4.300152
 30
0.0
 11
4.05
 21
4.300152
 31
0.0
  0
LINE
  5
B9
100
AcDbEntity
  8
1
  6
Continuous
 62
    92
100
AcDbLine
 10
5.699702
 20
-8.557336
 30
0.0
 11
3.107405
 21
-11.149632
 31
0.0
  0
LINE
  5
BA
100
AcDbEntity
  8
1
  6
Continuous
 62
    92
100
AcDbLine
 10
4.992595
 20
-7.850229
 30
0.0
 11
2.400298
 21
-10.442525
 31
0.0
  0
LINE
  5
BB
100
AcDbEntity
  8
1
  6
Continuous
 62
    92
100
AcDbLine
 10
5.538385
 20
2.008589
 30
0.0
 11
3.468052
 21
-2.431255
 31
0.0
  0
LINE
  5
BC
100
AcDbEntity
  8
1
  6
Continuous
 62
    92
100
AcDbLine
 10
4.632084
 20
2.431222
 30
0.0
 11
2.561727
 21
-2.008673
 31
0.0
  0
LINE
  5
BD
100
AcDbEntity
  8
1
  6
Continuous
 62
     2
100
AcDbLine
 10
4.992595
 20
7.850229
 30
0.0
 11
2.400298
 21
10.442525
 31
0.0
  0
LINE
  5
BE
100
AcDbEntity
  8
1
  6
Continuous
 62
     2
100
AcDbLine
 10
5.699702
 20
8.557336
 30
0.0
 11
3.107405
 21
11.149632
 31
0.0
  0
ARC
  5
BF
100
AcDbEntity
  8
1
  6
Continuous
 62
    92
100
AcDbCircle
 10
4.05
 20
1.300064
 30
0.0
 40
2.2
100
AcDbArc
 50
90.0
 51
180.0
  0
ARC
  5
C0
100
AcDbEntity
  8
1
  6
Continuous
 62
    92
100
AcDbCircle
 10
4.05
 20
-9.499931
 30
0.0
 40
2.15
100
AcDbArc
 50
90.0
 51
270.0
  0
ARC
  5
C1
100
AcDbEntity
  8
1
  6
Continuous
 62
     2
100
AcDbCircle
 10
4.05
 20
-1.299931
 30
0.0
 40
2.2
100
AcDbArc
 50
270.0
 51
360.0
  0
ARC
  5
C2
100
AcDbEntity
  8
1
  6
Continuous
 62
     2
100
AcDbCircle
 10
4.05
 20
1.300069
 30
0.0
 40
2.2
100
AcDbArc
 50
0.0
 51
90.0
  0
ARC
  5
C3
100
AcDbEntity
  8
1
  6
Continuous
 62
    92
100
AcDbCircle
 10
4.05
 20
9.500064
 30
0.0
 40
2.15
100
AcDbArc
 50
90.0
 51
270.0
  0
ARC
  5
C4
100
AcDbEntity
  8
1
  6
Continuous
 62
     2
100
AcDbCircle
 10
4.05
 20
-9.499931
 30
0.0
 40
2.15
100
AcDbArc
 50
270.0
 51
450.0
  0
ARC
  5
C5
100
AcDbEntity
  8
1
  6
Continuous
 62
    92
100
AcDbCircle
 10
4.05
 20
-1.299936
 30
0.0
 40
2.2
100
AcDbArc
 50
180.0
 51
270.0
  0
ARC
  5
C6
100
AcDbEntity
  8
1
  6
Continuous
 62
     2
100
AcDbCircle
 10
4.05
 20
9.500064
 30
0.0
 40
2.15
100
AcDbArc
 50
270.0
 51
450.0
  0
CIRCLE
  5
C7
100
AcDbEntity
  8
1
  6
Continuous
 62
    92
100
AcDbCircle
 10
4.05
 20
-9.499931
 30
0.0
 40
1.9
  0
CIRCLE
  5
C8
100
AcDbEntity
  8
1
  6
Continuous
 62
     2
100
AcDbCircle
 10
4.05
 20
9.500064
 30
0.0
 40
1.9
  0
ARC
  5
C9
100
AcDbEntity
  8
1
  6
Continuous
 62
     2
100
AcDbCircle
 10
4.05
 20
0.000069
 30
0.0
 40
2.5
100
AcDbArc
 50
388.357637
 51
511.642363
  0
ARC
  5
CA
100
AcDbEntity
  8
1
  6
Continuous
 62
     2
100
AcDbCircle
 10
-4.05
 20
-0.000069
 30
0.0
 40
2.5
210
0.0
220
0.0
230
-1.0
100
AcDbArc
 50
208.357637
 51
331.642363
  0
ENDSEC
  0
SECTION
  2
OBJECTS
  0
DICTIONARY
  5
19
100
AcDbDictionary
280
     0
281
     1
  3
ACAD_GROUP
350
1A
  3
ACAD_MLINESTYLE
350
1B
  3
ACAD_LAYOUT
350
1E
  3
ACAD_PLOTSETTINGS
350
22
  3
ACAD_PLOTSTYLENAME
350
1F
  3
ACAD_WIPEOUT_VARS
350
23
  0
DICTIONARY
  5
1A
102
{ACAD_REACTORS
330
19
102
}
100
AcDbDictionary
280
     0
281
     1
  0
DICTIONARY
  5
1B
102
{ACAD_REACTORS
330
19
102
}
100
AcDbDictionary
280
     0
281
     1
  3
Standard
350
1C
  0
MLINESTYLE
  5
1C
102
{ACAD_REACTORS
330
1B
102
}
100
AcDbMlineStyle
  2
Standard
 70
     0
  3

 62
     0
 51
90.0
 52
90.0
 71
     2
 49
0.5
 62
   256
  6
ByLayer
 49
-0.5
 62
   256
  6
ByLayer
  0
ACDBDICTIONARYWDFLT
  5
1F
102
{ACAD_REACTORS
330
19
102
}
100
AcDbDictionary
281
     1
  3
Normal
350
1D
100
AcDbDictionaryWithDefault
340
1D
  0
ACDBPLACEHOLDER
  5
1D
102
{ACAD_REACTORS
330
1F
102
}
  0
LAYOUT
  5
20
102
{ACAD_REACTORS
330
1E
102
}
100
AcDbPlotSettings
  1

  2

  4

  6

 40
0.0
 41
0.0
 42
0.0
 43
0.0
 44
0.0
 45
0.0
 46
0.0
 47
0.0
 48
0.0
 49
0.0
140
0.0
141
0.0
142
1.0
143
1.0
 70
  1024
 72
     0
 73
     0
 74
     0
  7

 75
     0
147
1.0
148
0.0
149
0.0
100
AcDbLayout
  1
Model
 70
     0
 71
     0
 10
0.0
 20
0.0
 11
0.0
 21
0.0
 12
0.0
 22
0.0
 32
0.0
 14
0.0
 24
0.0
 34
0.0
 15
0.0
 25
0.0
 35
0.0
146
0.0
 13
0.0
 23
0.0
 33
0.0
 16
0.0
 26
0.0
 36
0.0
 17
0.0
 27
0.0
 37
0.0
 76
     0
330
A
331
0
345
0
346
0
  0
LAYOUT
  5
21
102
{ACAD_REACTORS
330
1E
102
}
100
AcDbPlotSettings
  1

  2

  4

  6

 40
0.0
 41
0.0
 42
0.0
 43
0.0
 44
0.0
 45
0.0
 46
0.0
 47
0.0
 48
0.0
 49
0.0
140
0.0
141
0.0
142
1.0
143
1.0
 70
     0
 72
     0
 73
     0
 74
     0
  7

 75
     0
147
1.0
148
0.0
149
0.0
100
AcDbLayout
  1
Layout1
 70
     0
 71
     0
 10
0.0
 20
0.0
 11
0.0
 21
0.0
 12
0.0
 22
0.0
 32
0.0
 14
0.0
 24
0.0
 34
0.0
 15
0.0
 25
0.0
 35
0.0
146
0.0
 13
0.0
 23
0.0
 33
0.0
 16
0.0
 26
0.0
 36
0.0
 17
0.0
 27
0.0
 37
0.0
 76
     0
330
B
331
0
345
0
346
0
  0
DICTIONARY
  5
1E
102
{ACAD_REACTORS
330
19
102
}
100
AcDbDictionary
280
     0
281
     1
  3
Layout1
350
21
  3
Model
350
20
  0
DICTIONARY
  5
22
102
{ACAD_REACTORS
330
19
102
}
100
AcDbDictionary
280
     0
281
     1
  0
WIPEOUTVARIABLES
  5
23
100
AcDbWipeoutVariables
 70
     1
  0
ENDSEC
  0
EOF
