  0
SECTION
  2
HEADER
  9
$ACADVER
  1
AC1018
  9
$ACADMAINTVER
 70
   104
  9
$DWGCODEPAGE
  3
ANSI_1252
  9
$AUTHOR
  1
hoerl
  9
$CUSTOMPROPERTYTAG
  1
Manager
  9
$CUSTOMPROPERTY
  1

  9
$CUSTOMPROPERTYTAG
  1
Company
  9
$CUSTOMPROPERTY
  1

  9
$CUSTOMPROPERTYTAG
  1
Category
  9
$CUSTOMPROPERTY
  1

  9
$CUSTOMPROPERTYTAG
  1
Part Number
  9
$CUSTOMPROPERTY
  1
EW-339.820.00
  9
$CUSTOMPROPERTYTAG
  1
Description
  9
$CUSTOMPROPERTY
  1

  9
$CUSTOMPROPERTYTAG
  1
Project
  9
$CUSTOMPROPERTY
  1

  9
$CUSTOMPROPERTYTAG
  1
Designer
  9
$CUSTOMPROPERTY
  1
hoerl
  9
$CUSTOMPROPERTYTAG
  1
Engineer
  9
$CUSTOMPROPERTY
  1

  9
$CUSTOMPROPERTYTAG
  1
Authority
  9
$CUSTOMPROPERTY
  1

  9
$CUSTOMPROPERTYTAG
  1
Cost Center
  9
$CUSTOMPROPERTY
  1

  9
$CUSTOMPROPERTYTAG
  1
Vendor
  9
$CUSTOMPROPERTY
  1

  9
$CUSTOMPROPERTYTAG
  1
User Status
  9
$CUSTOMPROPERTY
  1

  9
$CUSTOMPROPERTYTAG
  1
Design Status
  9
$CUSTOMPROPERTY
  1
WorkInProgress
  9
$CUSTOMPROPERTYTAG
  1
Checked by
  9
$CUSTOMPROPERTY
  1

  9
$CUSTOMPROPERTYTAG
  1
Engr Approved by
  9
$CUSTOMPROPERTY
  1

  9
$CUSTOMPROPERTYTAG
  1
Mfg Approved by
  9
$CUSTOMPROPERTY
  1

  9
$INSBASE
 10
0.0
 20
0.0
 30
0.0
  9
$EXTMIN
 10
0.0
 20
0.0
 30
0.0
  9
$EXTMAX
 10
594.0
 20
420.0
 30
0.0
  9
$LIMMIN
 10
0.0
 20
0.0
  9
$LIMMAX
 10
594.0
 20
420.0
  9
$ORTHOMODE
 70
     0
  9
$REGENMODE
 70
     1
  9
$FILLMODE
 70
     1
  9
$QTEXTMODE
 70
     0
  9
$MIRRTEXT
 70
     0
  9
$LTSCALE
 40
1.0
  9
$ATTMODE
 70
     1
  9
$TEXTSIZE
 40
0.2
  9
$TRACEWID
 40
0.05
  9
$TEXTSTYLE
  7
Standard
  9
$CLAYER
  8
0
  9
$CELTYPE
  6
ByLayer
  9
$CECOLOR
 62
   256
  9
$CELTSCALE
 40
1.0
  9
$DISPSILH
 70
     0
  9
$DIMSCALE
 40
1.0
  9
$DIMASZ
 40
1.799999999999999
  9
$DIMEXO
 40
0.0625
  9
$DIMDLI
 40
0.38
  9
$DIMRND
 40
0.0
  9
$DIMDLE
 40
0.0
  9
$DIMEXE
 40
0.18
  9
$DIMTP
 40
0.0
  9
$DIMTM
 40
0.0
  9
$DIMTXT
 40
0.3499999940395355
  9
$DIMCEN
 40
0.09
  9
$DIMTSZ
 40
0.0
  9
$DIMTOL
 70
     0
  9
$DIMLIM
 70
     0
  9
$DIMTIH
 70
     1
  9
$DIMTOH
 70
     1
  9
$DIMSE1
 70
     0
  9
$DIMSE2
 70
     0
  9
$DIMTAD
 70
     0
  9
$DIMZIN
 70
     0
  9
$DIMBLK
  1

  9
$DIMASO
 70
     1
  9
$DIMSHO
 70
     1
  9
$DIMPOST
  1

  9
$DIMAPOST
  1

  9
$DIMALT
 70
     0
  9
$DIMALTD
 70
     2
  9
$DIMALTF
 40
25.4
  9
$DIMLFAC
 40
1.0
  9
$DIMTOFL
 70
     0
  9
$DIMTVP
 40
0.0
  9
$DIMTIX
 70
     0
  9
$DIMSOXD
 70
     0
  9
$DIMSAH
 70
     0
  9
$DIMBLK1
  1

  9
$DIMBLK2
  1

  9
$DIMSTYLE
  2
Standard
  9
$DIMCLRD
 70
     0
  9
$DIMCLRE
 70
     0
  9
$DIMCLRT
 70
     0
  9
$DIMTFAC
 40
1.0
  9
$DIMGAP
 40
0.09
  9
$DIMJUST
 70
     0
  9
$DIMSD1
 70
     0
  9
$DIMSD2
 70
     0
  9
$DIMTOLJ
 70
     1
  9
$DIMTZIN
 70
     0
  9
$DIMALTZ
 70
     0
  9
$DIMALTTZ
 70
     0
  9
$DIMUPT
 70
     0
  9
$DIMDEC
 70
     4
  9
$DIMTDEC
 70
     4
  9
$DIMALTU
 70
     2
  9
$DIMALTTD
 70
     2
  9
$DIMTXSTY
  7
Standard
  9
$DIMAUNIT
 70
     0
  9
$DIMADEC
 70
     0
  9
$DIMALTRND
 40
0.0
  9
$DIMAZIN
 70
     0
  9
$DIMDSEP
 70
    46
  9
$DIMATFIT
 70
     3
  9
$DIMFRAC
 70
     0
  9
$DIMLDRBLK
  1

  9
$DIMLUNIT
 70
     2
  9
$DIMLWD
 70
    -2
  9
$DIMLWE
 70
    -2
  9
$DIMTMOVE
 70
     0
  9
$LUNITS
 70
     2
  9
$LUPREC
 70
     4
  9
$SKETCHINC
 40
0.1
  9
$FILLETRAD
 40
0.0
  9
$AUNITS
 70
     0
  9
$AUPREC
 70
     0
  9
$MENU
  1
.
  9
$ELEVATION
 40
0.0
  9
$PELEVATION
 40
0.0
  9
$THICKNESS
 40
0.0
  9
$LIMCHECK
 70
     0
  9
$CHAMFERA
 40
0.0
  9
$CHAMFERB
 40
0.0
  9
$CHAMFERC
 40
0.0
  9
$CHAMFERD
 40
0.0
  9
$SKPOLY
 70
     0
  9
$TDCREATE
 40
2455071.465001076
  9
$TDUCREATE
 40
2455071.381667743
  9
$TDUPDATE
 40
2455071.465001076
  9
$TDUUPDATE
 40
2455071.381667743
  9
$TDINDWG
 40
0.0000224306
  9
$TDUSRTIMER
 40
0.0000224306
  9
$USRTIMER
 70
     1
  9
$ANGBASE
 50
0.0
  9
$ANGDIR
 70
     0
  9
$PDMODE
 70
     0
  9
$PDSIZE
 40
0.0
  9
$PLINEWID
 40
0.0
  9
$SPLFRAME
 70
     0
  9
$SPLINETYPE
 70
     6
  9
$SPLINESEGS
 70
     8
  9
$HANDSEED
  5
54F
  9
$SURFTAB1
 70
     6
  9
$SURFTAB2
 70
     6
  9
$SURFTYPE
 70
     6
  9
$SURFU
 70
     6
  9
$SURFV
 70
     6
  9
$UCSBASE
  2

  9
$UCSNAME
  2

  9
$UCSORG
 10
0.0
 20
0.0
 30
0.0
  9
$UCSXDIR
 10
1.0
 20
0.0
 30
0.0
  9
$UCSYDIR
 10
0.0
 20
1.0
 30
0.0
  9
$UCSORTHOREF
  2

  9
$UCSORTHOVIEW
 70
     0
  9
$UCSORGTOP
 10
0.0
 20
0.0
 30
0.0
  9
$UCSORGBOTTOM
 10
0.0
 20
0.0
 30
0.0
  9
$UCSORGLEFT
 10
0.0
 20
0.0
 30
0.0
  9
$UCSORGRIGHT
 10
0.0
 20
0.0
 30
0.0
  9
$UCSORGFRONT
 10
0.0
 20
0.0
 30
0.0
  9
$UCSORGBACK
 10
0.0
 20
0.0
 30
0.0
  9
$PUCSBASE
  2

  9
$PUCSNAME
  2

  9
$PUCSORG
 10
0.0
 20
0.0
 30
0.0
  9
$PUCSXDIR
 10
1.0
 20
0.0
 30
0.0
  9
$PUCSYDIR
 10
0.0
 20
1.0
 30
0.0
  9
$PUCSORTHOREF
  2

  9
$PUCSORTHOVIEW
 70
     0
  9
$PUCSORGTOP
 10
0.0
 20
0.0
 30
0.0
  9
$PUCSORGBOTTOM
 10
0.0
 20
0.0
 30
0.0
  9
$PUCSORGLEFT
 10
0.0
 20
0.0
 30
0.0
  9
$PUCSORGRIGHT
 10
0.0
 20
0.0
 30
0.0
  9
$PUCSORGFRONT
 10
0.0
 20
0.0
 30
0.0
  9
$PUCSORGBACK
 10
0.0
 20
0.0
 30
0.0
  9
$USERI1
 70
     0
  9
$USERI2
 70
     0
  9
$USERI3
 70
     0
  9
$USERI4
 70
     0
  9
$USERI5
 70
     0
  9
$USERR1
 40
0.0
  9
$USERR2
 40
0.0
  9
$USERR3
 40
0.0
  9
$USERR4
 40
0.0
  9
$USERR5
 40
0.0
  9
$WORLDVIEW
 70
     1
  9
$SHADEDGE
 70
     3
  9
$SHADEDIF
 70
    70
  9
$TILEMODE
 70
     1
  9
$MAXACTVP
 70
    64
  9
$PINSBASE
 10
0.0
 20
0.0
 30
0.0
  9
$PLIMCHECK
 70
     0
  9
$PEXTMIN
 10
0.0
 20
0.0
 30
0.0
  9
$PEXTMAX
 10
594.0
 20
420.0
 30
0.0
  9
$PLIMMIN
 10
0.0
 20
0.0
  9
$PLIMMAX
 10
594.0
 20
420.0
  9
$UNITMODE
 70
     0
  9
$VISRETAIN
 70
     1
  9
$PLINEGEN
 70
     0
  9
$PSLTSCALE
 70
     1
  9
$TREEDEPTH
 70
  3020
  9
$CMLSTYLE
  2
Standard
  9
$CMLJUST
 70
     0
  9
$CMLSCALE
 40
1.0
  9
$PROXYGRAPHICS
 70
     1
  9
$MEASUREMENT
 70
     1
  9
$CELWEIGHT
370
    -1
  9
$ENDCAPS
280
     0
  9
$JOINSTYLE
280
     0
  9
$LWDISPLAY
290
     0
  9
$INSUNITS
 70
     4
  9
$HYPERLINKBASE
  1

  9
$STYLESHEET
  1

  9
$XEDIT
290
     1
  9
$CEPSNTYPE
380
     0
  9
$PSTYLEMODE
290
     1
  9
$FINGERPRINTGUID
  2
{5FED9B1F-86C3-4CC4-8D46-988DF9E5D07A}
  9
$VERSIONGUID
  2
{45C02007-DDE1-4536-85EF-93B001B7B4EF}
  9
$EXTNAMES
290
     1
  9
$PSVPSCALE
 40
0.0
  9
$OLESTARTUP
290
     0
  9
$SORTENTS
280
   127
  9
$INDEXCTL
280
     0
  9
$HIDETEXT
280
     1
  9
$XCLIPFRAME
290
     0
  9
$HALOGAP
280
     0
  9
$OBSCOLOR
 70
   257
  9
$OBSLTYPE
280
     0
  9
$INTERSECTIONDISPLAY
280
     0
  9
$INTERSECTIONCOLOR
 70
   257
  9
$DIMASSOC
280
     1
  9
$PROJECTNAME
  1

  0
ENDSEC
  0
SECTION
  2
CLASSES
  0
CLASS
  1
ACDBDICTIONARYWDFLT
  2
AcDbDictionaryWithDefault
  3
ObjectDBX Classes
 90
        0
 91
        1
280
     0
281
     0
  0
CLASS
  1
MATERIAL
  2
AcDbMaterial
  3
ObjectDBX Classes
 90
     1153
 91
        3
280
     0
281
     0
  0
CLASS
  1
VISUALSTYLE
  2
AcDbVisualStyle
  3
ObjectDBX Classes
 90
     4095
 91
       16
280
     0
281
     0
  0
CLASS
  1
SCALE
  2
AcDbScale
  3
ObjectDBX Classes
 90
     1153
 91
       33
280
     0
281
     0
  0
CLASS
  1
TABLESTYLE
  2
AcDbTableStyle
  3
ObjectDBX Classes
 90
     4095
 91
        1
280
     0
281
     0
  0
CLASS
  1
MLEADERSTYLE
  2
AcDbMLeaderStyle
  3
ACDB_MLEADERSTYLE_CLASS
 90
     4095
 91
        1
280
     0
281
     0
  0
CLASS
  1
DICTIONARYVAR
  2
AcDbDictionaryVar
  3
ObjectDBX Classes
 90
        0
 91
        7
280
     0
281
     0
  0
CLASS
  1
CELLSTYLEMAP
  2
AcDbCellStyleMap
  3
ObjectDBX Classes
 90
     1152
 91
        1
280
     0
281
     0
  0
ENDSEC
  0
SECTION
  2
TABLES
  0
TABLE
  2
VPORT
  5
8
330
0
100
AcDbSymbolTable
 70
     1
  0
VPORT
  5
5F
330
8
100
AcDbSymbolTableRecord
100
AcDbViewportTableRecord
  2
*Active
 70
     0
 10
0.0
 20
0.0
 11
1.0
 21
1.0
 12
297.0
 22
210.0
 13
0.0
 23
0.0
 14
1.0
 24
1.0
 15
0.0
 25
0.0
 16
0.0
 26
0.0
 36
1.0
 17
0.0
 27
0.0
 37
0.0
 40
420.0
 41
1.414285714285714
 42
50.0
 43
0.0
 44
0.0
 50
0.0
 51
0.0
 71
     0
 72
   100
 73
     1
 74
     1
 75
     0
 76
     0
 77
     0
 78
     0
281
     0
 65
     1
110
0.0
120
0.0
130
0.0
111
1.0
121
0.0
131
0.0
112
0.0
122
1.0
132
0.0
 79
     0
146
0.0
  0
ENDTAB
  0
TABLE
  2
LTYPE
  5
5
330
0
100
AcDbSymbolTable
 70
    59
  0
LTYPE
  5
63
330
5
100
AcDbSymbolTableRecord
100
AcDbLinetypeTableRecord
  2
ByBlock
 70
     0
  3

 72
    65
 73
     0
 40
0.0
  0
LTYPE
  5
64
330
5
100
AcDbSymbolTableRecord
100
AcDbLinetypeTableRecord
  2
ByLayer
 70
     0
  3

 72
    65
 73
     0
 40
0.0
  0
LTYPE
  5
65
330
5
100
AcDbSymbolTableRecord
100
AcDbLinetypeTableRecord
  2
Continuous
 70
     0
  3
Solid line
 72
    65
 73
     0
 40
0.0
  0
LTYPE
  5
7D
330
5
100
AcDbSymbolTableRecord
100
AcDbLinetypeTableRecord
  2
Section_View_Lines
 70
     0
  3
Section View Lines
 72
    65
 73
     4
 40
0.8406
 49
0.6614
 74
     0
 49
-0.0827
 74
     0
 49
0.0138
 74
     0
 49
-0.0827
 74
     0
  0
LTYPE
  5
7E
330
5
100
AcDbSymbolTableRecord
100
AcDbLinetypeTableRecord
  2
CHAIN
 70
     0
  3
Chain ____ _ ____ _ ____ _ ____ _ ____ _ ____
 72
    65
 73
     4
 40
0.3543
 49
0.2362
 74
     0
 49
-0.0295
 74
     0
 49
0.0591
 74
     0
 49
-0.0295
 74
     0
  0
LTYPE
  5
7F
330
5
100
AcDbSymbolTableRecord
100
AcDbLinetypeTableRecord
  2
DASH_DOT
 70
     0
  3
Dash dot _._._._._._._._._._._._._._._.
 72
    65
 73
     4
 40
0.182
 49
0.1181
 74
     0
 49
-0.0295
 74
     0
 49
0.0049
 74
     0
 49
-0.0295
 74
     0
  0
LTYPE
  5
80
330
5
100
AcDbSymbolTableRecord
100
AcDbLinetypeTableRecord
  2
DASH_DOUBLE_DOT
 70
     0
  3
Dash Double Dot __ __ . __ __ . __ __ . __ _
 72
    65
 73
     6
 40
0.2164
 49
0.1181
 74
     0
 49
-0.0295
 74
     0
 49
0.0049
 74
     0
 49
-0.0295
 74
     0
 49
0.0049
 74
     0
 49
-0.0295
 74
     0
  0
LTYPE
  5
81
330
5
100
AcDbSymbolTableRecord
100
AcDbLinetypeTableRecord
  2
DASH_TRIPLE_DOT
 70
     0
  3
Dash Triple-Dot _ . . . _ . . . _ . . . _
 72
    65
 73
     8
 40
0.2508
 49
0.1181
 74
     0
 49
-0.0295
 74
     0
 49
0.0049
 74
     0
 49
-0.0295
 74
     0
 49
0.0049
 74
     0
 49
-0.0295
 74
     0
 49
0.0049
 74
     0
 49
-0.0295
 74
     0
  0
LTYPE
  5
82
330
5
100
AcDbSymbolTableRecord
100
AcDbLinetypeTableRecord
  2
DASHED
 70
     0
  3
Dashed __ __ __ __ __ __ __ __ __ __ __ __ __ _
 72
    65
 73
     2
 40
0.2068
 49
0.1655
 74
     0
 49
-0.0413
 74
     0
  0
LTYPE
  5
83
330
5
100
AcDbSymbolTableRecord
100
AcDbLinetypeTableRecord
  2
DASHED_SPACE
 70
     0
  3
Dashed Space __ __ __ __ __ __ __ __ __ __ __ _
 72
    65
 73
     2
 40
0.2067
 49
0.1654
 74
     0
 49
-0.0413
 74
     0
  0
LTYPE
  5
84
330
5
100
AcDbSymbolTableRecord
100
AcDbLinetypeTableRecord
  2
DOTTED
 70
     0
  3
Dotted . . . . . . . . . . . . . . . . . . . . 
 72
    65
 73
     2
 40
0.0481
 49
0.0068
 74
     0
 49
-0.0413
 74
     0
  0
LTYPE
  5
85
330
5
100
AcDbSymbolTableRecord
100
AcDbLinetypeTableRecord
  2
DOUBLE_DASH_CHAIN
 70
     0
  3
Double Dash Chain ___ _ _ ___ _ _ ___ _ _ ___ _
 72
    65
 73
     6
 40
1.240299999999999
 49
0.6614
 74
     0
 49
-0.0827
 74
     0
 49
0.1654
 74
     0
 49
-0.0827
 74
     0
 49
0.1654
 74
     0
 49
-0.0827
 74
     0
  0
LTYPE
  5
86
330
5
100
AcDbSymbolTableRecord
100
AcDbLinetypeTableRecord
  2
DOUBLE_DASH_DOT
 70
     0
  3
Double Dash Dot __ __ . __ __ . __ __ . __ _
 72
    65
 73
     6
 40
0.3296
 49
0.1181
 74
     0
 49
-0.0295
 74
     0
 49
0.1181
 74
     0
 49
-0.0295
 74
     0
 49
0.0049
 74
     0
 49
-0.0295
 74
     0
  0
LTYPE
  5
87
330
5
100
AcDbSymbolTableRecord
100
AcDbLinetypeTableRecord
  2
DOUBLE_DASH_DOUBLE_DOT
 70
     0
  3
Double Dash Double Dot _ _ . . _ _ . . _ _
 72
    65
 73
     8
 40
0.364
 49
0.1181
 74
     0
 49
-0.0295
 74
     0
 49
0.1181
 74
     0
 49
-0.0295
 74
     0
 49
0.0049
 74
     0
 49
-0.0295
 74
     0
 49
0.0049
 74
     0
 49
-0.0295
 74
     0
  0
LTYPE
  5
88
330
5
100
AcDbSymbolTableRecord
100
AcDbLinetypeTableRecord
  2
DOUBLE_DASH_TRIPLE_DOT
 70
     0
  3
Double Dash Triple Dot __ __ . . . __ __ . . .
 72
    65
 73
    10
 40
0.3984
 49
0.1181
 74
     0
 49
-0.0295
 74
     0
 49
0.1181
 74
     0
 49
-0.0295
 74
     0
 49
0.0049
 74
     0
 49
-0.0295
 74
     0
 49
0.0049
 74
     0
 49
-0.0295
 74
     0
 49
0.0049
 74
     0
 49
-0.0295
 74
     0
  0
LTYPE
  5
89
330
5
100
AcDbSymbolTableRecord
100
AcDbLinetypeTableRecord
  2
LONG_DASH_DOTTED
 70
     0
  3
Long Dash Dotted ____ . ____ . ____ . ____ . _
 72
    65
 73
     4
 40
0.3001
 49
0.2362
 74
     0
 49
-0.0295
 74
     0
 49
0.0049
 74
     0
 49
-0.0295
 74
     0
  0
LTYPE
  5
8A
330
5
100
AcDbSymbolTableRecord
100
AcDbLinetypeTableRecord
  2
LONG_DASH_DOUBLE_DOT
 70
     0
  3
Long Dash Double Dot ____ . . ____ . . ____ . .
 72
    65
 73
     6
 40
0.3345
 49
0.2362
 74
     0
 49
-0.0295
 74
     0
 49
0.0049
 74
     0
 49
-0.0295
 74
     0
 49
0.0049
 74
     0
 49
-0.0295
 74
     0
  0
LTYPE
  5
8B
330
5
100
AcDbSymbolTableRecord
100
AcDbLinetypeTableRecord
  2
LONG_DASH_TRIPLE_DOT
 70
     0
  3
Long Dash Triple Dot ____ ... ____ ... ____
 72
    65
 73
     8
 40
0.3689
 49
0.2362
 74
     0
 49
-0.0295
 74
     0
 49
0.0049
 74
     0
 49
-0.0295
 74
     0
 49
0.0049
 74
     0
 49
-0.0295
 74
     0
 49
0.0049
 74
     0
 49
-0.0295
 74
     0
  0
LTYPE
  5
8C
330
5
100
AcDbSymbolTableRecord
100
AcDbLinetypeTableRecord
  2
BORDER
 70
     0
  3
Border __ __ . __ __ . __ __ . __ __ . __ __ .
 72
    65
 73
     6
 40
44.45
 49
12.7
 74
     0
 49
-6.349999999999999
 74
     0
 49
12.7
 74
     0
 49
-6.349999999999999
 74
     0
 49
0.0
 74
     0
 49
-6.349999999999999
 74
     0
  0
LTYPE
  5
8D
330
5
100
AcDbSymbolTableRecord
100
AcDbLinetypeTableRecord
  2
BORDER2
 70
     0
  3
Border (.5x) __.__.__.__.__.__.__.__.__.__.__.
 72
    65
 73
     6
 40
22.225
 49
6.349999999999999
 74
     0
 49
-3.174999999999999
 74
     0
 49
6.349999999999999
 74
     0
 49
-3.174999999999999
 74
     0
 49
0.0
 74
     0
 49
-3.174999999999999
 74
     0
  0
LTYPE
  5
8E
330
5
100
AcDbSymbolTableRecord
100
AcDbLinetypeTableRecord
  2
BORDERX2
 70
     0
  3
Border (2x) ____  ____  .  ____  ____  .  ___
 72
    65
 73
     6
 40
88.9
 49
25.4
 74
     0
 49
-12.7
 74
     0
 49
25.4
 74
     0
 49
-12.7
 74
     0
 49
0.0
 74
     0
 49
-12.7
 74
     0
  0
LTYPE
  5
8F
330
5
100
AcDbSymbolTableRecord
100
AcDbLinetypeTableRecord
  2
CENTER
 70
     0
  3
Center ____ _ ____ _ ____ _ ____ _ ____ _ ____
 72
    65
 73
     4
 40
50.8
 49
31.75
 74
     0
 49
-6.349999999999999
 74
     0
 49
6.349999999999999
 74
     0
 49
-6.349999999999999
 74
     0
  0
LTYPE
  5
90
330
5
100
AcDbSymbolTableRecord
100
AcDbLinetypeTableRecord
  2
CENTER2
 70
     0
  3
Center (.5x) ___ _ ___ _ ___ _ ___ _ ___ _ ___
 72
    65
 73
     4
 40
28.575
 49
19.05
 74
     0
 49
-3.174999999999999
 74
     0
 49
3.174999999999999
 74
     0
 49
-3.174999999999999
 74
     0
  0
LTYPE
  5
91
330
5
100
AcDbSymbolTableRecord
100
AcDbLinetypeTableRecord
  2
CENTERX2
 70
     0
  3
Center (2x) ________  __  ________  __  _____
 72
    65
 73
     4
 40
101.6
 49
63.5
 74
     0
 49
-12.7
 74
     0
 49
12.7
 74
     0
 49
-12.7
 74
     0
  0
LTYPE
  5
92
330
5
100
AcDbSymbolTableRecord
100
AcDbLinetypeTableRecord
  2
DASHDOT2
 70
     0
  3
Dash dot (.5x) _._._._._._._._._._._._._._._.
 72
    65
 73
     4
 40
12.7
 49
6.349999999999999
 74
     0
 49
-3.174999999999999
 74
     0
 49
0.0
 74
     0
 49
-3.174999999999999
 74
     0
  0
LTYPE
  5
93
330
5
100
AcDbSymbolTableRecord
100
AcDbLinetypeTableRecord
  2
DASHDOTX2
 70
     0
  3
Dash dot (2x) ____  .  ____  .  ____  .  ___
 72
    65
 73
     4
 40
50.8
 49
25.4
 74
     0
 49
-12.7
 74
     0
 49
0.0
 74
     0
 49
-12.7
 74
     0
  0
LTYPE
  5
94
330
5
100
AcDbSymbolTableRecord
100
AcDbLinetypeTableRecord
  2
DASHED2
 70
     0
  3
Dashed (.5x) _ _ _ _ _ _ _ _ _ _ _ _ _ _ _ _ _
 72
    65
 73
     2
 40
9.524999999999998
 49
6.349999999999999
 74
     0
 49
-3.174999999999999
 74
     0
  0
LTYPE
  5
95
330
5
100
AcDbSymbolTableRecord
100
AcDbLinetypeTableRecord
  2
DASHEDX2
 70
     0
  3
Dashed (2x) ____  ____  ____  ____  ____  ___
 72
    65
 73
     2
 40
38.1
 49
25.4
 74
     0
 49
-12.7
 74
     0
  0
LTYPE
  5
96
330
5
100
AcDbSymbolTableRecord
100
AcDbLinetypeTableRecord
  2
DIVIDE
 70
     0
  3
Divide ____ . . ____ . . ____ . . ____ . . ____
 72
    65
 73
     6
 40
31.75
 49
12.7
 74
     0
 49
-6.349999999999999
 74
     0
 49
0.0
 74
     0
 49
-6.349999999999999
 74
     0
 49
0.0
 74
     0
 49
-6.349999999999999
 74
     0
  0
LTYPE
  5
97
330
5
100
AcDbSymbolTableRecord
100
AcDbLinetypeTableRecord
  2
DIVIDE2
 70
     0
  3
Divide (.5x) __..__..__..__..__..__..__..__.._
 72
    65
 73
     6
 40
15.875
 49
6.349999999999999
 74
     0
 49
-3.174999999999999
 74
     0
 49
0.0
 74
     0
 49
-3.174999999999999
 74
     0
 49
0.0
 74
     0
 49
-3.174999999999999
 74
     0
  0
LTYPE
  5
98
330
5
100
AcDbSymbolTableRecord
100
AcDbLinetypeTableRecord
  2
DIVIDEX2
 70
     0
  3
Divide (2x) ________  .  .  ________  .  .  _
 72
    65
 73
     6
 40
63.49999999999999
 49
25.4
 74
     0
 49
-12.7
 74
     0
 49
0.0
 74
     0
 49
-12.7
 74
     0
 49
0.0
 74
     0
 49
-12.7
 74
     0
  0
LTYPE
  5
99
330
5
100
AcDbSymbolTableRecord
100
AcDbLinetypeTableRecord
  2
DOT
 70
     0
  3
Dot . . . . . . . . . . . . . . . . . . . . . .
 72
    65
 73
     2
 40
6.349999999999999
 49
0.0
 74
     0
 49
-6.349999999999999
 74
     0
  0
LTYPE
  5
9A
330
5
100
AcDbSymbolTableRecord
100
AcDbLinetypeTableRecord
  2
DOT2
 70
     0
  3
Dot (.5x) .....................................
 72
    65
 73
     2
 40
3.174999999999999
 49
0.0
 74
     0
 49
-3.174999999999999
 74
     0
  0
LTYPE
  5
9B
330
5
100
AcDbSymbolTableRecord
100
AcDbLinetypeTableRecord
  2
DOTX2
 70
     0
  3
Dot (2x) .  .  .  .  .  .  .  .  .  .  .  .  . 
 72
    65
 73
     2
 40
12.7
 49
0.0
 74
     0
 49
-12.7
 74
     0
  0
LTYPE
  5
9C
330
5
100
AcDbSymbolTableRecord
100
AcDbLinetypeTableRecord
  2
HIDDEN
 70
     0
  3
Hidden __ __ __ __ __ __ __ __ __ __ __ __ __ _
 72
    65
 73
     2
 40
9.524999999999998
 49
6.349999999999999
 74
     0
 49
-3.174999999999999
 74
     0
  0
LTYPE
  5
9D
330
5
100
AcDbSymbolTableRecord
100
AcDbLinetypeTableRecord
  2
HIDDEN2
 70
     0
  3
Hidden (.5x) _ _ _ _ _ _ _ _ _ _ _ _ _ _ _ _ _
 72
    65
 73
     2
 40
4.762499999999999
 49
3.174999999999999
 74
     0
 49
-1.587499999999999
 74
     0
  0
LTYPE
  5
9E
330
5
100
AcDbSymbolTableRecord
100
AcDbLinetypeTableRecord
  2
HIDDENX2
 70
     0
  3
Hidden (2x) ____ ____ ____ ____ ____ ____ ____
 72
    65
 73
     2
 40
19.05
 49
12.7
 74
     0
 49
-6.349999999999999
 74
     0
  0
LTYPE
  5
9F
330
5
100
AcDbSymbolTableRecord
100
AcDbLinetypeTableRecord
  2
PHANTOM
 70
     0
  3
Phantom ______  __  __  ______  __  __  ______
 72
    65
 73
     6
 40
63.5
 49
31.75
 74
     0
 49
-6.349999999999999
 74
     0
 49
6.349999999999999
 74
     0
 49
-6.349999999999999
 74
     0
 49
6.349999999999999
 74
     0
 49
-6.349999999999999
 74
     0
  0
LTYPE
  5
A0
330
5
100
AcDbSymbolTableRecord
100
AcDbLinetypeTableRecord
  2
PHANTOM2
 70
     0
  3
Phantom (.5x) ___ _ _ ___ _ _ ___ _ _ ___ _ _
 72
    65
 73
     6
 40
31.75
 49
15.875
 74
     0
 49
-3.174999999999999
 74
     0
 49
3.174999999999999
 74
     0
 49
-3.174999999999999
 74
     0
 49
3.174999999999999
 74
     0
 49
-3.174999999999999
 74
     0
  0
LTYPE
  5
A1
330
5
100
AcDbSymbolTableRecord
100
AcDbLinetypeTableRecord
  2
PHANTOMX2
 70
     0
  3
Phantom (2x) ____________    ____    ____   _
 72
    65
 73
     6
 40
127.0
 49
63.5
 74
     0
 49
-12.7
 74
     0
 49
12.7
 74
     0
 49
-12.7
 74
     0
 49
12.7
 74
     0
 49
-12.7
 74
     0
  0
LTYPE
  5
A2
330
5
100
AcDbSymbolTableRecord
100
AcDbLinetypeTableRecord
  2
ACAD_ISO02W100
 70
     0
  3
ISO dash __ __ __ __ __ __ __ __ __ __ __ __ __
 72
    65
 73
     2
 40
15.0
 49
12.0
 74
     0
 49
-3.0
 74
     0
  0
LTYPE
  5
A3
330
5
100
AcDbSymbolTableRecord
100
AcDbLinetypeTableRecord
  2
ACAD_ISO03W100
 70
     0
  3
ISO dash space __    __    __    __    __    __
 72
    65
 73
     2
 40
30.0
 49
12.0
 74
     0
 49
-18.0
 74
     0
  0
LTYPE
  5
A4
330
5
100
AcDbSymbolTableRecord
100
AcDbLinetypeTableRecord
  2
ACAD_ISO04W100
 70
     0
  3
ISO long-dash dot ____ . ____ . ____ . ____ . _
 72
    65
 73
     4
 40
30.0
 49
24.0
 74
     0
 49
-3.0
 74
     0
 49
0.0
 74
     0
 49
-3.0
 74
     0
  0
LTYPE
  5
A5
330
5
100
AcDbSymbolTableRecord
100
AcDbLinetypeTableRecord
  2
ACAD_ISO05W100
 70
     0
  3
ISO long-dash double-dot ____ .. ____ .. ____ .
 72
    65
 73
     6
 40
33.0
 49
24.0
 74
     0
 49
-3.0
 74
     0
 49
0.0
 74
     0
 49
-3.0
 74
     0
 49
0.0
 74
     0
 49
-3.0
 74
     0
  0
LTYPE
  5
A6
330
5
100
AcDbSymbolTableRecord
100
AcDbLinetypeTableRecord
  2
ACAD_ISO06W100
 70
     0
  3
ISO long-dash triple-dot ____ ... ____ ... ____
 72
    65
 73
     8
 40
36.0
 49
24.0
 74
     0
 49
-3.0
 74
     0
 49
0.0
 74
     0
 49
-3.0
 74
     0
 49
0.0
 74
     0
 49
-3.0
 74
     0
 49
0.0
 74
     0
 49
-3.0
 74
     0
  0
LTYPE
  5
A7
330
5
100
AcDbSymbolTableRecord
100
AcDbLinetypeTableRecord
  2
ACAD_ISO07W100
 70
     0
  3
ISO dot . . . . . . . . . . . . . . . . . . . .
 72
    65
 73
     2
 40
3.0
 49
0.0
 74
     0
 49
-3.0
 74
     0
  0
LTYPE
  5
A8
330
5
100
AcDbSymbolTableRecord
100
AcDbLinetypeTableRecord
  2
ACAD_ISO08W100
 70
     0
  3
ISO long-dash short-dash ____ __ ____ __ ____ _
 72
    65
 73
     4
 40
36.0
 49
24.0
 74
     0
 49
-3.0
 74
     0
 49
6.0
 74
     0
 49
-3.0
 74
     0
  0
LTYPE
  5
A9
330
5
100
AcDbSymbolTableRecord
100
AcDbLinetypeTableRecord
  2
ACAD_ISO09W100
 70
     0
  3
ISO long-dash double-short-dash ____ __ __ ____
 72
    65
 73
     6
 40
45.0
 49
24.0
 74
     0
 49
-3.0
 74
     0
 49
6.0
 74
     0
 49
-3.0
 74
     0
 49
6.0
 74
     0
 49
-3.0
 74
     0
  0
LTYPE
  5
AA
330
5
100
AcDbSymbolTableRecord
100
AcDbLinetypeTableRecord
  2
ACAD_ISO10W100
 70
     0
  3
ISO dash dot __ . __ . __ . __ . __ . __ . __ .
 72
    65
 73
     4
 40
18.0
 49
12.0
 74
     0
 49
-3.0
 74
     0
 49
0.0
 74
     0
 49
-3.0
 74
     0
  0
LTYPE
  5
AB
330
5
100
AcDbSymbolTableRecord
100
AcDbLinetypeTableRecord
  2
ACAD_ISO11W100
 70
     0
  3
ISO double-dash dot __ __ . __ __ . __ __ . __ 
 72
    65
 73
     6
 40
33.0
 49
12.0
 74
     0
 49
-3.0
 74
     0
 49
12.0
 74
     0
 49
-3.0
 74
     0
 49
0.0
 74
     0
 49
-3.0
 74
     0
  0
LTYPE
  5
AC
330
5
100
AcDbSymbolTableRecord
100
AcDbLinetypeTableRecord
  2
ACAD_ISO12W100
 70
     0
  3
ISO dash double-dot __ . . __ . . __ . . __ . .
 72
    65
 73
     6
 40
21.0
 49
12.0
 74
     0
 49
-3.0
 74
     0
 49
0.0
 74
     0
 49
-3.0
 74
     0
 49
0.0
 74
     0
 49
-3.0
 74
     0
  0
LTYPE
  5
AD
330
5
100
AcDbSymbolTableRecord
100
AcDbLinetypeTableRecord
  2
ACAD_ISO13W100
 70
     0
  3
ISO double-dash double-dot __ __ . . __ __ . . 
 72
    65
 73
     8
 40
36.0
 49
12.0
 74
     0
 49
-3.0
 74
     0
 49
12.0
 74
     0
 49
-3.0
 74
     0
 49
0.0
 74
     0
 49
-3.0
 74
     0
 49
0.0
 74
     0
 49
-3.0
 74
     0
  0
LTYPE
  5
AE
330
5
100
AcDbSymbolTableRecord
100
AcDbLinetypeTableRecord
  2
ACAD_ISO14W100
 70
     0
  3
ISO dash triple-dot __ . . . __ . . . __ . . . 
 72
    65
 73
     8
 40
24.0
 49
12.0
 74
     0
 49
-3.0
 74
     0
 49
0.0
 74
     0
 49
-3.0
 74
     0
 49
0.0
 74
     0
 49
-3.0
 74
     0
 49
0.0
 74
     0
 49
-3.0
 74
     0
  0
LTYPE
  5
AF
330
5
100
AcDbSymbolTableRecord
100
AcDbLinetypeTableRecord
  2
ACAD_ISO15W100
 70
     0
  3
ISO double-dash triple-dot __ __ . . . __ __ . 
 72
    65
 73
    10
 40
39.0
 49
12.0
 74
     0
 49
-3.0
 74
     0
 49
12.0
 74
     0
 49
-3.0
 74
     0
 49
0.0
 74
     0
 49
-3.0
 74
     0
 49
0.0
 74
     0
 49
-3.0
 74
     0
 49
0.0
 74
     0
 49
-3.0
 74
     0
  0
LTYPE
  5
B2
330
5
100
AcDbSymbolTableRecord
100
AcDbLinetypeTableRecord
  2
FENCELINE1
 70
     0
  3
Fenceline circle ----0-----0----0-----0----0---
 72
    65
 73
     4
 40
36.83
 49
6.349999999999999
 74
     0
 49
-2.54
 74
     4
 75
   133
340
B1
 46
2.54
 50
0.0
 44
-2.54
 45
0.0
 49
-2.54
 74
     0
 49
25.4
 74
     0
  0
LTYPE
  5
B3
330
5
100
AcDbSymbolTableRecord
100
AcDbLinetypeTableRecord
  2
FENCELINE2
 70
     0
  3
Fenceline square ----[]-----[]----[]-----[]----
 72
    65
 73
     4
 40
36.83
 49
6.349999999999999
 74
     0
 49
-2.54
 74
     4
 75
   132
340
B1
 46
2.54
 50
0.0
 44
-2.54
 45
0.0
 49
-2.54
 74
     0
 49
25.4
 74
     0
  0
LTYPE
  5
B4
330
5
100
AcDbSymbolTableRecord
100
AcDbLinetypeTableRecord
  2
TRACKS
 70
     0
  3
Tracks -|-|-|-|-|-|-|-|-|-|-|-|-|-|-|-|-|-|-|-|
 72
    65
 73
     2
 40
7.62
 49
3.81
 74
     4
 75
   130
340
B1
 46
6.349999999999999
 50
0.0
 44
0.0
 45
0.0
 49
3.81
 74
     0
  0
LTYPE
  5
B5
330
5
100
AcDbSymbolTableRecord
100
AcDbLinetypeTableRecord
  2
BATTING
 70
     0
  3
Batting SSSSSSSSSSSSSSSSSSSSSSSSSSSSSSSSSSSSSSS
 72
    65
 73
     4
 40
10.16254
 49
0.00254
 74
     0
 49
-2.54
 74
     4
 75
   134
340
B1
 46
2.54
 50
0.0
 44
-2.54
 45
0.0
 49
-5.08
 74
     4
 75
   134
340
B1
 46
2.54
 50
180.0
 44
2.54
 45
0.0
 49
-2.54
 74
     0
  0
LTYPE
  5
B6
330
5
100
AcDbSymbolTableRecord
100
AcDbLinetypeTableRecord
  2
HOT_WATER_SUPPLY
 70
     0
  3
Hot water supply ---- HW ---- HW ---- HW ----
 72
    65
 73
     3
 40
22.86
 49
12.7
 74
     0
 49
-5.08
 74
     2
 75
     0
340
5D
 46
2.54
 50
0.0
 44
-2.54
 45
-1.27
  9
HW
 49
-5.08
 74
     0
  0
LTYPE
  5
B7
330
5
100
AcDbSymbolTableRecord
100
AcDbLinetypeTableRecord
  2
GAS_LINE
 70
     0
  3
Gas line ----GAS----GAS----GAS----GAS----GAS---
 72
    65
 73
     3
 40
24.13
 49
12.7
 74
     0
 49
-5.08
 74
     2
 75
     0
340
5D
 46
2.54
 50
0.0
 44
-2.54
 45
-1.27
  9
GAS
 49
-6.349999999999999
 74
     0
  0
LTYPE
  5
B8
330
5
100
AcDbSymbolTableRecord
100
AcDbLinetypeTableRecord
  2
ZIGZAG
 70
     0
  3
Zig zag /\/\/\/\/\/\/\/\/\/\/\/\/\/\/\/\/\/\/\/
 72
    65
 73
     4
 40
20.32254
 49
0.00254
 74
     0
 49
-5.08
 74
     4
 75
   131
340
B1
 46
5.08
 50
0.0
 44
-5.08
 45
0.0
 49
-10.16
 74
     4
 75
   131
340
B1
 46
5.08
 50
180.0
 44
5.08
 45
0.0
 49
-5.08
 74
     0
  0
ENDTAB
  0
TABLE
  2
LAYER
  5
2
330
0
100
AcDbSymbolTable
 70
    25
  0
LAYER
  5
5C
330
2
100
AcDbSymbolTableRecord
100
AcDbLayerTableRecord
  2
0
 70
     0
 62
     7
  6
Continuous
370
    -3
390
F
  0
LAYER
  5
C3
330
2
100
AcDbSymbolTableRecord
100
AcDbLayerTableRecord
  2
Hidden (ISO)
 70
     0
 62
     7
  6
Continuous
370
    35
390
F
  0
LAYER
  5
CC
330
2
100
AcDbSymbolTableRecord
100
AcDbLayerTableRecord
  2
Visible (ISO)
 70
     0
 62
     7
  6
Continuous
370
    50
390
F
  0
LAYER
  5
CD
330
2
100
AcDbSymbolTableRecord
100
AcDbLayerTableRecord
  2
Visible Narrow (ISO)
 70
     0
 62
     7
  6
Continuous
370
    35
390
F
  0
ENDTAB
  0
TABLE
  2
STYLE
  5
3
330
0
100
AcDbSymbolTable
 70
    15
  0
STYLE
  5
5D
330
3
100
AcDbSymbolTableRecord
100
AcDbTextStyleTableRecord
  2
Standard
 70
     0
 40
0.0
 41
1.0
 50
0.0
 71
     0
 42
0.2
  3
TAHOMA.TTF
  4

1001
ACAD
1000
Tahoma
1071
      256
  0
STYLE
  5
62
330
3
100
AcDbSymbolTableRecord
100
AcDbTextStyleTableRecord
  2
Annotative
 70
     0
 40
0.0
 41
1.0
 50
0.0
 71
     0
 42
0.2
  3
txt
  4

1001
AcadAnnotative
1000
AnnotativeData
1002
{
1070
     1
1070
     1
1002
}
  0
STYLE
  5
B1
330
3
100
AcDbSymbolTableRecord
100
AcDbTextStyleTableRecord
  2

 70
     1
 40
0.0
 41
1.0
 50
0.0
 71
     0
 42
0.2
  3
ltypeshp.shx
  4

  0
STYLE
  5
D1
330
3
100
AcDbSymbolTableRecord
100
AcDbTextStyleTableRecord
  2
Alternative Text (GOST)
 70
     0
 40
0.0
 41
0.8000000119209289
 50
0.0
 71
     0
 42
0.2
  3
ARIAL.TTF
  4

1001
ACAD
1000
Arial
1071
      256
  0
STYLE
  5
D2
330
3
100
AcDbSymbolTableRecord
100
AcDbTextStyleTableRecord
  2
Condensed Text (GOST)
 70
     0
 40
0.0
 41
0.8000000119209289
 50
0.0
 71
     0
 42
0.2
  3
GOST Common.ttf
  4

1001
ACAD
1000
GOST Common
1071
      256
  0
STYLE
  5
D3
330
3
100
AcDbSymbolTableRecord
100
AcDbTextStyleTableRecord
  2
Enlarged Text (GOST)
 70
     0
 40
0.0
 41
1.0
 50
0.0
 71
     0
 42
0.2
  3
GOST Common.ttf
  4

1001
ACAD
1000
GOST Common
1071
      256
  0
STYLE
  5
D4
330
3
100
AcDbSymbolTableRecord
100
AcDbTextStyleTableRecord
  2
Label Text (ANSI)
 70
     0
 40
0.0
 41
1.0
 50
0.0
 71
     0
 42
0.2
  3
TAHOMA.TTF
  4

1001
ACAD
1000
Tahoma
1071
      256
  0
STYLE
  5
D5
330
3
100
AcDbSymbolTableRecord
100
AcDbTextStyleTableRecord
  2
Label Text (DIN)
 70
     0
 40
0.0
 41
1.0
 50
0.0
 71
     0
 42
0.2
  3
isocpeur.ttf
  4

1001
ACAD
1000
ISOCPEUR
1071
      256
  0
STYLE
  5
D6
330
3
100
AcDbSymbolTableRecord
100
AcDbTextStyleTableRecord
  2
Label Text (ISO)
 70
     0
 40
0.0
 41
1.0
 50
0.0
 71
     0
 42
0.2
  3
TAHOMA.TTF
  4

1001
ACAD
1000
Tahoma
1071
      256
  0
STYLE
  5
D7
330
3
100
AcDbSymbolTableRecord
100
AcDbTextStyleTableRecord
  2
Label Text (JIS)
 70
     0
 40
0.0
 41
1.0
 50
0.0
 71
     0
 42
0.2
  3
TAHOMA.TTF
  4

1001
ACAD
1000
Tahoma
1071
      256
  0
STYLE
  5
D8
330
3
100
AcDbSymbolTableRecord
100
AcDbTextStyleTableRecord
  2
Note Text (ANSI)
 70
     0
 40
0.0
 41
1.0
 50
0.0
 71
     0
 42
0.2
  3
TAHOMA.TTF
  4

1001
ACAD
1000
Tahoma
1071
      256
  0
STYLE
  5
D9
330
3
100
AcDbSymbolTableRecord
100
AcDbTextStyleTableRecord
  2
Note Text (DIN)
 70
     0
 40
0.0
 41
1.0
 50
0.0
 71
     0
 42
0.2
  3
isocpeur.ttf
  4

1001
ACAD
1000
ISOCPEUR
1071
      256
  0
STYLE
  5
DA
330
3
100
AcDbSymbolTableRecord
100
AcDbTextStyleTableRecord
  2
Note Text (ISO)
 70
     0
 40
0.0
 41
1.0
 50
0.0
 71
     0
 42
0.2
  3
TAHOMA.TTF
  4

1001
ACAD
1000
Tahoma
1071
      256
  0
STYLE
  5
DB
330
3
100
AcDbSymbolTableRecord
100
AcDbTextStyleTableRecord
  2
Note Text (JIS)
 70
     0
 40
0.0
 41
1.0
 50
0.0
 71
     0
 42
0.2
  3
TAHOMA.TTF
  4

1001
ACAD
1000
Tahoma
1071
      256
  0
STYLE
  5
DC
330
3
100
AcDbSymbolTableRecord
100
AcDbTextStyleTableRecord
  2
Regular Text (GOST)
 70
     0
 40
0.0
 41
1.0
 50
0.0
 71
     0
 42
0.2
  3
GOST Common.ttf
  4

1001
ACAD
1000
GOST Common
1071
      256
  0
ENDTAB
  0
TABLE
  2
VIEW
  5
6
330
0
100
AcDbSymbolTable
 70
     0
  0
ENDTAB
  0
TABLE
  2
UCS
  5
7
330
0
100
AcDbSymbolTable
 70
     0
  0
ENDTAB
  0
TABLE
  2
APPID
  5
9
330
0
100
AcDbSymbolTable
 70
     3
  0
APPID
  5
5E
330
9
100
AcDbSymbolTableRecord
100
AcDbRegAppTableRecord
  2
ACAD
 70
     0
  0
APPID
  5
66
330
9
100
AcDbSymbolTableRecord
100
AcDbRegAppTableRecord
  2
AcadAnnotative
 70
     0
  0
APPID
  5
70
330
9
100
AcDbSymbolTableRecord
100
AcDbRegAppTableRecord
  2
ACAD_MLEADERVER
 70
     0
  0
ENDTAB
  0
TABLE
  2
DIMSTYLE
  5
A
330
0
100
AcDbSymbolTable
 70
    15
100
AcDbDimStyleTable
 71
     0
  0
DIMSTYLE
105
60
330
A
100
AcDbSymbolTableRecord
100
AcDbDimStyleTableRecord
  2
Standard
 70
     0
340
5D
  0
DIMSTYLE
105
61
330
A
100
AcDbSymbolTableRecord
100
AcDbDimStyleTableRecord
  2
Annotative
 70
     0
340
5D
1001
AcadAnnotative
1000
AnnotativeData
1002
{
1070
     1
1070
     1
1002
}
  0
DIMSTYLE
105
DD
330
A
100
AcDbSymbolTableRecord
100
AcDbDimStyleTableRecord
  2
Default - Method 1b (ISO)
 70
     0
 41
2.5
 42
0.0
 43
5.999999999999999
 44
3.174999999999999
 45
0.00000001
 46
10.0
 73
     0
 77
     1
 78
     8
 79
     2
140
3.5
143
0.03937
147
0.762
171
     3
172
     1
176
   256
177
   256
178
   256
179
     2
271
     2
272
     2
274
     3
278
    44
284
     8
286
     8
340
DA
371
    -1
372
    -1
  0
DIMSTYLE
105
DE
330
A
100
AcDbSymbolTableRecord
100
AcDbDimStyleTableRecord
  2
Default - Method 1b (ISO)$7
 70
     0
 41
2.5
 42
0.0
 43
5.999999999999999
 44
3.174999999999999
 45
0.00000001
 46
10.0
 73
     0
 77
     1
 78
     8
 79
     2
140
3.5
143
0.03937
147
0.762
171
     3
172
     1
176
   256
177
   256
178
   256
179
     2
271
     2
272
     2
274
     3
278
    44
284
     8
286
     8
340
DA
371
    -1
372
    -1
  0
DIMSTYLE
105
DF
330
A
100
AcDbSymbolTableRecord
100
AcDbDimStyleTableRecord
  2
Default - Method 2a (ISO)
 70
     0
 41
2.5
 42
0.0
 43
5.999999999999999
 44
3.174999999999999
 45
0.00000001
 46
10.0
 77
     1
 78
     8
 79
     2
140
3.5
143
0.03937
147
0.762
171
     3
172
     1
176
   256
177
   256
178
   256
179
     2
271
     2
272
     2
274
     3
278
    44
284
     8
286
     8
340
DA
371
    -1
372
    -1
  0
DIMSTYLE
105
E0
330
A
100
AcDbSymbolTableRecord
100
AcDbDimStyleTableRecord
  2
Default - Method 2a (ISO)$7
 70
     0
 41
2.5
 42
0.0
 43
5.999999999999999
 44
3.174999999999999
 45
0.00000001
 46
10.0
 77
     1
 78
     8
 79
     2
140
3.5
143
0.03937
147
0.762
171
     3
172
     1
176
   256
177
   256
178
   256
179
     2
271
     2
272
     2
274
     3
278
    44
284
     8
286
     8
340
DA
371
    -1
372
    -1
  0
DIMSTYLE
105
E1
330
A
100
AcDbSymbolTableRecord
100
AcDbDimStyleTableRecord
  2
Default - Method 2b (ISO)
 70
     0
 41
2.5
 42
0.0
 43
5.999999999999999
 44
3.174999999999999
 45
0.00000001
 46
10.0
 77
     1
 78
     8
 79
     2
140
3.5
143
0.03937
147
0.762
171
     3
172
     1
176
   256
177
   256
178
   256
179
     2
271
     2
272
     2
274
     3
278
    44
284
     8
286
     8
340
DA
371
    -1
372
    -1
  0
DIMSTYLE
105
E2
330
A
100
AcDbSymbolTableRecord
100
AcDbDimStyleTableRecord
  2
Default - Method 2b (ISO)$7
 70
     0
 41
2.5
 42
0.0
 43
5.999999999999999
 44
3.174999999999999
 45
0.00000001
 46
10.0
 77
     1
 78
     8
 79
     2
140
3.5
143
0.03937
147
0.762
171
     3
172
     1
176
   256
177
   256
178
   256
179
     2
271
     2
272
     2
274
     3
278
    44
284
     8
286
     8
340
DA
371
    -1
372
    -1
  0
DIMSTYLE
105
E3
330
A
100
AcDbSymbolTableRecord
100
AcDbDimStyleTableRecord
  2
Default - mm [in] (ISO)
 70
     0
  4
 in
 41
2.5
 42
0.0
 43
5.999999999999999
 44
3.174999999999999
 45
0.00000001
 46
10.0
 73
     0
 74
     0
 77
     1
 78
     8
 79
     2
140
3.5
143
0.03937
147
0.762
170
     1
171
     3
172
     1
176
   256
177
   256
178
   256
179
     3
271
     3
272
     2
274
     3
275
     1
278
    44
284
     8
285
     8
286
     8
340
DA
371
    -1
372
    -1
  0
DIMSTYLE
105
E4
330
A
100
AcDbSymbolTableRecord
100
AcDbDimStyleTableRecord
  2
Default - mm [in] (ISO)$7
 70
     0
  4
 in
 41
2.5
 42
0.0
 43
5.999999999999999
 44
3.174999999999999
 45
0.00000001
 46
10.0
 73
     0
 74
     0
 77
     1
 78
     8
 79
     2
140
3.5
143
0.03937
147
0.762
170
     1
171
     3
172
     1
176
   256
177
   256
178
   256
179
     3
271
     3
272
     2
274
     3
275
     1
278
    44
284
     8
285
     8
286
     8
340
DA
371
    -1
372
    -1
  0
DIMSTYLE
105
E5
330
A
100
AcDbSymbolTableRecord
100
AcDbDimStyleTableRecord
  2
Default (ISO)
 70
     0
 41
2.5
 42
0.0
 43
5.999999999999999
 44
3.174999999999999
 45
0.00000001
 46
10.0
 73
     0
 74
     0
 77
     1
140
3.5
143
0.03937
146
1.001485756465366
147
0.762
171
     3
172
     1
176
   256
177
   256
178
   256
179
     2
271
     2
272
     2
274
     3
278
    44
340
DA
371
    -1
372
    -1
  0
DIMSTYLE
105
E6
330
A
100
AcDbSymbolTableRecord
100
AcDbDimStyleTableRecord
  2
Default (ISO)$7
 70
     0
 41
2.5
 42
0.0
 43
5.999999999999999
 44
3.174999999999999
 45
0.00000001
 46
10.0
 73
     0
 74
     0
 77
     1
140
3.5
143
0.03937
146
1.001485756465366
147
0.762
171
     3
172
     1
176
   256
177
   256
178
   256
179
     2
271
     2
272
     2
274
     3
278
    44
340
DA
371
    -1
372
    -1
  0
DIMSTYLE
105
E7
330
A
100
AcDbSymbolTableRecord
100
AcDbDimStyleTableRecord
  2
Alternate (ISO)
 70
     0
 41
2.5
340
5D
342
E8
  0
DIMSTYLE
105
F9
330
A
100
AcDbSymbolTableRecord
100
AcDbDimStyleTableRecord
  2
Datum (ISO)
 70
     0
 41
2.5
340
5D
342
E8
  0
DIMSTYLE
105
108
330
A
100
AcDbSymbolTableRecord
100
AcDbDimStyleTableRecord
  2
Large (ISO)
 70
     0
 41
5.0
340
5D
342
E8
  0
ENDTAB
  0
TABLE
  2
BLOCK_RECORD
  5
1
330
0
100
AcDbSymbolTable
 70
     4
  0
BLOCK_RECORD
  5
75
330
1
100
AcDbSymbolTableRecord
100
AcDbBlockTableRecord
  2
*Model_Space
340
78
  0
BLOCK_RECORD
  5
71
330
1
100
AcDbSymbolTableRecord
100
AcDbBlockTableRecord
  2
*Paper_Space
340
74
  0
BLOCK_RECORD
  5
79
330
1
100
AcDbSymbolTableRecord
100
AcDbBlockTableRecord
  2
*Paper_Space0
340
7C
  0
BLOCK_RECORD
  5
E8
330
1
100
AcDbSymbolTableRecord
100
AcDbBlockTableRecord
  2
_Closed
340
0
  0
BLOCK_RECORD
  5
EF
330
1
100
AcDbSymbolTableRecord
100
AcDbBlockTableRecord
  2
DatumFilled45
340
0
  0
BLOCK_RECORD
  5
FA
330
1
100
AcDbSymbolTableRecord
100
AcDbBlockTableRecord
  2
Filled-1
340
0
  0
ENDTAB
  0
ENDSEC
  0
SECTION
  2
BLOCKS
  0
BLOCK
  5
76
330
75
100
AcDbEntity
  8
0
100
AcDbBlockBegin
  2
*Model_Space
 70
     0
 10
0.0
 20
0.0
 30
0.0
  3
*Model_Space
  1

  0
ENDBLK
  5
77
330
75
100
AcDbEntity
  8
0
100
AcDbBlockEnd
  0
BLOCK
  5
72
330
71
100
AcDbEntity
 67
     1
  8
0
100
AcDbBlockBegin
  2
*Paper_Space
 70
     0
 10
0.0
 20
0.0
 30
0.0
  3
*Paper_Space
  1

  0
ENDBLK
  5
73
330
71
100
AcDbEntity
 67
     1
  8
0
100
AcDbBlockEnd
  0
BLOCK
  5
7A
330
79
100
AcDbEntity
 67
     1
  8
0
100
AcDbBlockBegin
  2
*Paper_Space0
 70
     0
 10
0.0
 20
0.0
 30
0.0
  3
*Paper_Space0
  1

  0
ENDBLK
  5
7B
330
79
100
AcDbEntity
 67
     1
  8
0
100
AcDbBlockEnd
  0
BLOCK
  5
ED
330
E8
100
AcDbEntity
  8
0
100
AcDbBlockBegin
  2
_Closed
 70
     0
 10
0.0
 20
0.0
 30
0.0
  3
_Closed
  1

  0
LINE
  5
E9
330
E8
100
AcDbEntity
  8
0
  6
ByBlock
 62
     0
370
    -2
100
AcDbLine
 10
-1.0
 20
0.1666666666666666
 30
0.0
 11
0.0
 21
0.0
 31
0.0
  0
LINE
  5
EA
330
E8
100
AcDbEntity
  8
0
  6
ByBlock
 62
     0
370
    -2
100
AcDbLine
 10
0.0
 20
0.0
 30
0.0
 11
-1.0
 21
-0.1666666666666666
 31
0.0
  0
LINE
  5
EB
330
E8
100
AcDbEntity
  8
0
  6
ByBlock
 62
     0
370
    -2
100
AcDbLine
 10
-1.0
 20
0.1666666666666666
 30
0.0
 11
-1.0
 21
-0.1666666666666666
 31
0.0
  0
LINE
  5
EC
330
E8
100
AcDbEntity
  8
0
  6
ByBlock
 62
     0
370
    -2
100
AcDbLine
 10
0.0
 20
0.0
 30
0.0
 11
-1.0
 21
0.0
 31
0.0
  0
ENDBLK
  5
EE
330
E8
100
AcDbEntity
  8
0
100
AcDbBlockEnd
  0
BLOCK
  5
F0
330
EF
100
AcDbEntity
  8
0
100
AcDbBlockBegin
  2
DatumFilled45
 70
     0
 10
0.0
 20
0.0
 30
0.0
  3
DatumFilled45
  1

  0
POLYLINE
  5
F2
330
EF
100
AcDbEntity
  8
0
 62
     0
100
AcDb2dPolyline
 66
     1
 10
0.0
 20
0.0
 30
0.0
 70
   128
  0
VERTEX
  5
F3
330
F2
100
AcDbEntity
  8
0
 62
     0
100
AcDbVertex
100
AcDb2dVertex
 10
0.0
 20
1.0
 30
0.0
  0
VERTEX
  5
F4
330
F2
100
AcDbEntity
  8
0
 62
     0
100
AcDbVertex
100
AcDb2dVertex
 10
0.0
 20
-1.0
 30
0.0
  0
VERTEX
  5
F6
330
F2
100
AcDbEntity
  8
0
 62
     0
100
AcDbVertex
100
AcDb2dVertex
 10
-1.0
 20
0.0
 30
0.0
  0
VERTEX
  5
F7
330
F2
100
AcDbEntity
  8
0
 62
     0
100
AcDbVertex
100
AcDb2dVertex
 10
0.0
 20
1.0
 30
0.0
  0
SEQEND
  5
F5
330
F2
100
AcDbEntity
  8
0
 62
     0
  0
SOLID
  5
F8
330
EF
100
AcDbEntity
  8
0
 62
     0
100
AcDbTrace
 10
0.0
 20
1.0
 30
0.0
 11
0.0
 21
-1.0
 31
0.0
 12
-1.0
 22
0.0
 32
0.0
 13
0.0
 23
1.0
 33
0.0
  0
ENDBLK
  5
F1
330
EF
100
AcDbEntity
  8
0
100
AcDbBlockEnd
  0
BLOCK
  5
FB
330
FA
100
AcDbEntity
  8
0
100
AcDbBlockBegin
  2
Filled-1
 70
     0
 10
0.0
 20
0.0
 30
0.0
  3
Filled-1
  1

  0
LINE
  5
FD
330
FA
100
AcDbEntity
  8
0
 62
     0
100
AcDbLine
 10
-1.0
 20
0.0
 30
0.0
 11
0.0
 21
0.0
 31
0.0
  0
POLYLINE
  5
FE
330
FA
100
AcDbEntity
  8
0
 62
     0
100
AcDb2dPolyline
 66
     1
 10
0.0
 20
0.0
 30
0.0
 70
   128
  0
VERTEX
  5
FF
330
FE
100
AcDbEntity
  8
0
 62
     0
100
AcDbVertex
100
AcDb2dVertex
 10
-1.0
 20
-0.1
 30
0.0
  0
VERTEX
  5
100
330
FE
100
AcDbEntity
  8
0
 62
     0
100
AcDbVertex
100
AcDb2dVertex
 10
0.0
 20
0.0
 30
0.0
  0
VERTEX
  5
102
330
FE
100
AcDbEntity
  8
0
 62
     0
100
AcDbVertex
100
AcDb2dVertex
 10
-1.0
 20
0.1
 30
0.0
  0
VERTEX
  5
103
330
FE
100
AcDbEntity
  8
0
 62
     0
100
AcDbVertex
100
AcDb2dVertex
 10
-1.0
 20
-0.1
 30
0.0
  0
SEQEND
  5
101
330
FE
100
AcDbEntity
  8
0
 62
     0
  0
SOLID
  5
104
330
FA
100
AcDbEntity
  8
0
 62
     0
100
AcDbTrace
 10
-1.0
 20
-0.1
 30
0.0
 11
0.0
 21
0.0
 31
0.0
 12
-1.0
 22
0.1
 32
0.0
 13
-1.0
 23
-0.1
 33
0.0
  0
LINE
  5
105
330
FA
100
AcDbEntity
  8
0
 62
     0
100
AcDbLine
 10
-1.0
 20
-0.1
 30
0.0
 11
0.0
 21
0.0
 31
0.0
  0
LINE
  5
106
330
FA
100
AcDbEntity
  8
0
 62
     0
100
AcDbLine
 10
0.0
 20
0.0
 30
0.0
 11
-1.0
 21
0.1
 31
0.0
  0
LINE
  5
107
330
FA
100
AcDbEntity
  8
0
 62
     0
100
AcDbLine
 10
-1.0
 20
0.1
 30
0.0
 11
-1.0
 21
-0.1
 31
0.0
  0
ENDBLK
  5
FC
330
FA
100
AcDbEntity
  8
0
100
AcDbBlockEnd
  0
ENDSEC
  0
SECTION
  2
ENTITIES
  0
LINE
  5
109
330
75
100
AcDbEntity
  8
Hidden (ISO)
100
AcDbLine
 10
278.8924116627588
 20
239.4514165160349
 30
0.0
 11
278.8924116627588
 21
236.151416516035
 31
0.0
  0
LINE
  5
10A
330
75
100
AcDbEntity
  8
Hidden (ISO)
100
AcDbLine
 10
278.8924116627588
 20
190.8514165160349
 30
0.0
 11
278.8924116627588
 21
187.5514165160349
 31
0.0
  0
LINE
  5
10B
330
75
100
AcDbEntity
  8
Hidden (ISO)
100
AcDbLine
 10
278.8924116627588
 20
236.151416516035
 30
0.0
 11
277.1538951820454
 21
236.151416516035
 31
0.0
  0
LINE
  5
10C
330
75
100
AcDbEntity
  8
Hidden (ISO)
100
AcDbLine
 10
278.8924116627588
 20
239.4514165160349
 30
0.0
 11
277.1538951820454
 21
239.4514165160349
 31
0.0
  0
LINE
  5
10D
330
75
100
AcDbEntity
  8
Hidden (ISO)
100
AcDbLine
 10
278.8924116627588
 20
187.5514165160349
 30
0.0
 11
277.1538951820454
 21
187.5514165160349
 31
0.0
  0
LINE
  5
10E
330
75
100
AcDbEntity
  8
Hidden (ISO)
100
AcDbLine
 10
278.8924116627588
 20
190.8514165160349
 30
0.0
 11
277.1538951820454
 21
190.8514165160349
 31
0.0
  0
LINE
  5
10F
330
75
100
AcDbEntity
  8
Visible (ISO)
100
AcDbLine
 10
277.1538951820454
 20
191.4514165160349
 30
0.0
 11
277.1538951820454
 21
186.9514165160349
 31
0.0
  0
LINE
  5
110
330
75
100
AcDbEntity
  8
Visible (ISO)
100
AcDbLine
 10
277.1538951820454
 20
235.551416516035
 30
0.0
 11
277.1538951820454
 21
240.051416516035
 31
0.0
  0
LINE
  5
111
330
75
100
AcDbEntity
  8
Visible (ISO)
100
AcDbLine
 10
322.8538951820453
 20
275.401416516035
 30
0.0
 11
295.8538951820453
 21
275.401416516035
 31
0.0
  0
LINE
  5
112
330
75
100
AcDbEntity
  8
Visible (ISO)
100
AcDbLine
 10
322.8538951820453
 20
151.4014165160349
 30
0.0
 11
322.8538951820453
 21
142.901416516035
 31
0.0
  0
LINE
  5
113
330
75
100
AcDbEntity
  8
Visible (ISO)
100
AcDbLine
 10
322.8538951820453
 20
142.901416516035
 30
0.0
 11
324.8538951820453
 21
140.901416516035
 31
0.0
  0
LINE
  5
114
330
75
100
AcDbEntity
  8
Visible (ISO)
100
AcDbLine
 10
324.8538951820453
 20
140.901416516035
 30
0.0
 11
336.8538951820454
 21
140.901416516035
 31
0.0
  0
LINE
  5
115
330
75
100
AcDbEntity
  8
Visible (ISO)
100
AcDbLine
 10
336.8538951820454
 20
140.901416516035
 30
0.0
 11
338.8538951820454
 21
142.901416516035
 31
0.0
  0
LINE
  5
116
330
75
100
AcDbEntity
  8
Visible (ISO)
100
AcDbLine
 10
338.8538951820454
 20
142.901416516035
 30
0.0
 11
338.8538951820454
 21
283.9014165160349
 31
0.0
  0
LINE
  5
117
330
75
100
AcDbEntity
  8
Visible (ISO)
100
AcDbLine
 10
338.8538951820454
 20
283.9014165160349
 30
0.0
 11
336.8538951820454
 21
285.9014165160349
 31
0.0
  0
LINE
  5
118
330
75
100
AcDbEntity
  8
Visible (ISO)
100
AcDbLine
 10
336.8538951820454
 20
285.9014165160349
 30
0.0
 11
324.8538951820453
 21
285.901416516035
 31
0.0
  0
LINE
  5
119
330
75
100
AcDbEntity
  8
Visible (ISO)
100
AcDbLine
 10
324.8538951820453
 20
285.901416516035
 30
0.0
 11
322.8538951820453
 21
283.9014165160349
 31
0.0
  0
LINE
  5
11A
330
75
100
AcDbEntity
  8
Visible (ISO)
100
AcDbLine
 10
322.8538951820453
 20
283.9014165160349
 30
0.0
 11
322.8538951820453
 21
275.401416516035
 31
0.0
  0
LINE
  5
11B
330
75
100
AcDbEntity
  8
Visible (ISO)
100
AcDbLine
 10
295.8538951820453
 20
275.401416516035
 30
0.0
 11
295.8538951820453
 21
283.9014165160349
 31
0.0
  0
LINE
  5
11C
330
75
100
AcDbEntity
  8
Visible (ISO)
100
AcDbLine
 10
295.8538951820453
 20
283.9014165160349
 30
0.0
 11
293.8538951820453
 21
285.9014165160349
 31
0.0
  0
LINE
  5
11D
330
75
100
AcDbEntity
  8
Visible (ISO)
100
AcDbLine
 10
293.8538951820453
 20
285.9014165160349
 30
0.0
 11
281.8538951820453
 21
285.901416516035
 31
0.0
  0
LINE
  5
11E
330
75
100
AcDbEntity
  8
Visible (ISO)
100
AcDbLine
 10
281.8538951820453
 20
285.901416516035
 30
0.0
 11
279.8538951820453
 21
283.9014165160349
 31
0.0
  0
LINE
  5
11F
330
75
100
AcDbEntity
  8
Visible (ISO)
100
AcDbLine
 10
279.8538951820453
 20
283.9014165160349
 30
0.0
 11
279.8538951820453
 21
270.901416516035
 31
0.0
  0
LINE
  5
120
330
75
100
AcDbEntity
  8
Visible (ISO)
100
AcDbLine
 10
279.8538951820453
 20
270.901416516035
 30
0.0
 11
276.3538951820454
 21
270.901416516035
 31
0.0
  0
LINE
  5
121
330
75
100
AcDbEntity
  8
Visible (ISO)
100
AcDbLine
 10
276.3538951820454
 20
155.9014165160349
 30
0.0
 11
279.8538951820453
 21
155.9014165160349
 31
0.0
  0
LINE
  5
122
330
75
100
AcDbEntity
  8
Visible (ISO)
100
AcDbLine
 10
279.8538951820453
 20
155.9014165160349
 30
0.0
 11
279.8538951820453
 21
142.9014165160349
 31
0.0
  0
LINE
  5
123
330
75
100
AcDbEntity
  8
Visible (ISO)
100
AcDbLine
 10
279.8538951820453
 20
142.9014165160349
 30
0.0
 11
281.8538951820452
 21
140.901416516035
 31
0.0
  0
LINE
  5
124
330
75
100
AcDbEntity
  8
Visible (ISO)
100
AcDbLine
 10
281.8538951820452
 20
140.901416516035
 30
0.0
 11
293.8538951820453
 21
140.901416516035
 31
0.0
  0
LINE
  5
125
330
75
100
AcDbEntity
  8
Visible (ISO)
100
AcDbLine
 10
293.8538951820453
 20
140.901416516035
 30
0.0
 11
295.8538951820453
 21
142.901416516035
 31
0.0
  0
LINE
  5
126
330
75
100
AcDbEntity
  8
Visible (ISO)
100
AcDbLine
 10
295.8538951820453
 20
142.901416516035
 30
0.0
 11
295.8538951820453
 21
151.4014165160349
 31
0.0
  0
LINE
  5
127
330
75
100
AcDbEntity
  8
Visible (ISO)
100
AcDbLine
 10
295.8538951820453
 20
151.4014165160349
 30
0.0
 11
322.8538951820453
 21
151.4014165160349
 31
0.0
  0
CIRCLE
  5
128
330
75
100
AcDbEntity
  8
Visible (ISO)
100
AcDbCircle
 10
287.8538951820453
 20
146.1014165160349
 30
0.0
 40
2.600000000000004
  0
CIRCLE
  5
129
330
75
100
AcDbEntity
  8
Visible (ISO)
100
AcDbCircle
 10
287.8538951820453
 20
280.9014165160349
 30
0.0
 40
2.600000000000004
  0
CIRCLE
  5
12A
330
75
100
AcDbEntity
  8
Visible (ISO)
100
AcDbCircle
 10
330.8538951820453
 20
280.9014165160349
 30
0.0
 40
2.600000000000004
  0
CIRCLE
  5
12B
330
75
100
AcDbEntity
  8
Visible (ISO)
100
AcDbCircle
 10
330.8538951820453
 20
145.901416516035
 30
0.0
 40
2.600000000000004
  0
LINE
  5
12C
330
75
100
AcDbEntity
  8
Visible (ISO)
100
AcDbLine
 10
286.8538951820454
 20
194.0314165160349
 30
0.0
 11
286.8538951820454
 21
195.8314165160349
 31
0.0
  0
LINE
  5
12D
330
75
100
AcDbEntity
  8
Visible (ISO)
100
AcDbLine
 10
286.8538951820454
 20
195.8314165160349
 30
0.0
 11
294.8538951820453
 21
195.8314165160349
 31
0.0
  0
LINE
  5
12E
330
75
100
AcDbEntity
  8
Visible (ISO)
100
AcDbLine
 10
294.8538951820453
 20
195.8314165160349
 30
0.0
 11
294.8538951820453
 21
194.0314165160349
 31
0.0
  0
LINE
  5
12F
330
75
100
AcDbEntity
  8
Visible (ISO)
100
AcDbLine
 10
294.8538951820453
 20
194.0314165160349
 30
0.0
 11
286.8538951820454
 21
194.0314165160349
 31
0.0
  0
LINE
  5
130
330
75
100
AcDbEntity
  8
Visible (ISO)
100
AcDbLine
 10
326.8538951820453
 20
194.0314165160349
 30
0.0
 11
326.8538951820453
 21
195.8314165160349
 31
0.0
  0
LINE
  5
131
330
75
100
AcDbEntity
  8
Visible (ISO)
100
AcDbLine
 10
326.8538951820453
 20
195.8314165160349
 30
0.0
 11
334.8538951820454
 21
195.8314165160349
 31
0.0
  0
LINE
  5
132
330
75
100
AcDbEntity
  8
Visible (ISO)
100
AcDbLine
 10
334.8538951820454
 20
195.8314165160349
 30
0.0
 11
334.8538951820454
 21
194.0314165160349
 31
0.0
  0
LINE
  5
133
330
75
100
AcDbEntity
  8
Visible (ISO)
100
AcDbLine
 10
334.8538951820454
 20
194.0314165160349
 30
0.0
 11
326.8538951820453
 21
194.0314165160349
 31
0.0
  0
CIRCLE
  5
134
330
75
100
AcDbEntity
  8
Visible (ISO)
100
AcDbCircle
 10
290.8538951820453
 20
237.8014165160349
 30
0.0
 40
1.349999999999997
  0
CIRCLE
  5
135
330
75
100
AcDbEntity
  8
Visible (ISO)
100
AcDbCircle
 10
290.8538951820453
 20
189.2014165160349
 30
0.0
 40
1.35
  0
CIRCLE
  5
136
330
75
100
AcDbEntity
  8
Visible (ISO)
100
AcDbCircle
 10
330.8538951820453
 20
237.8014165160349
 30
0.0
 40
1.349999999999997
  0
CIRCLE
  5
137
330
75
100
AcDbEntity
  8
Visible (ISO)
100
AcDbCircle
 10
330.8538951820453
 20
189.2014165160349
 30
0.0
 40
1.35
  0
CIRCLE
  5
138
330
75
100
AcDbEntity
  8
Visible (ISO)
100
AcDbCircle
 10
308.8538951820453
 20
208.801416516035
 30
0.0
 40
2.25
  0
LINE
  5
139
330
75
100
AcDbEntity
  8
Visible (ISO)
100
AcDbLine
 10
306.6538951820453
 20
178.6014165160349
 30
0.0
 11
311.0538951820453
 21
178.6014165160349
 31
0.0
  0
LINE
  5
13A
330
75
100
AcDbEntity
  8
Visible (ISO)
100
AcDbLine
 10
306.6538951820453
 20
183.0014165160349
 30
0.0
 11
306.6538951820453
 21
178.6014165160349
 31
0.0
  0
LINE
  5
13B
330
75
100
AcDbEntity
  8
Visible (ISO)
100
AcDbLine
 10
311.0538951820453
 20
183.0014165160349
 30
0.0
 11
306.6538951820453
 21
183.0014165160349
 31
0.0
  0
LINE
  5
13C
330
75
100
AcDbEntity
  8
Visible (ISO)
100
AcDbLine
 10
311.0538951820453
 20
178.6014165160349
 30
0.0
 11
311.0538951820453
 21
183.0014165160349
 31
0.0
  0
LINE
  5
13D
330
75
100
AcDbEntity
  8
Visible (ISO)
100
AcDbLine
 10
304.6538951820453
 20
199.201416516035
 30
0.0
 11
304.6538951820453
 21
193.8014165160349
 31
0.0
  0
LINE
  5
13E
330
75
100
AcDbEntity
  8
Visible (ISO)
100
AcDbLine
 10
313.0538951820453
 20
199.2014165160349
 30
0.0
 11
304.6538951820453
 21
199.201416516035
 31
0.0
  0
LINE
  5
13F
330
75
100
AcDbEntity
  8
Visible (ISO)
100
AcDbLine
 10
313.0538951820453
 20
193.8014165160349
 30
0.0
 11
313.0538951820453
 21
199.2014165160349
 31
0.0
  0
LINE
  5
140
330
75
100
AcDbEntity
  8
Visible (ISO)
100
AcDbLine
 10
311.0538951820453
 20
191.8014165160349
 30
0.0
 11
313.0538951820453
 21
193.8014165160349
 31
0.0
  0
LINE
  5
141
330
75
100
AcDbEntity
  8
Visible (ISO)
100
AcDbLine
 10
311.0538951820453
 20
185.0014165160349
 30
0.0
 11
311.0538951820453
 21
191.8014165160349
 31
0.0
  0
LINE
  5
142
330
75
100
AcDbEntity
  8
Visible (ISO)
100
AcDbLine
 10
306.6538951820453
 20
185.0014165160349
 30
0.0
 11
311.0538951820453
 21
185.0014165160349
 31
0.0
  0
LINE
  5
143
330
75
100
AcDbEntity
  8
Visible (ISO)
100
AcDbLine
 10
306.6538951820453
 20
191.8014165160349
 30
0.0
 11
306.6538951820453
 21
185.0014165160349
 31
0.0
  0
LINE
  5
144
330
75
100
AcDbEntity
  8
Visible (ISO)
100
AcDbLine
 10
304.6538951820453
 20
193.8014165160349
 30
0.0
 11
306.6538951820453
 21
191.8014165160349
 31
0.0
  0
LINE
  5
145
330
75
100
AcDbEntity
  8
Visible (ISO)
100
AcDbLine
 10
304.6538951820453
 20
266.2014165160349
 30
0.0
 11
304.6538951820453
 21
260.801416516035
 31
0.0
  0
LINE
  5
146
330
75
100
AcDbEntity
  8
Visible (ISO)
100
AcDbLine
 10
313.0538951820453
 20
266.2014165160349
 30
0.0
 11
304.6538951820453
 21
266.2014165160349
 31
0.0
  0
LINE
  5
147
330
75
100
AcDbEntity
  8
Visible (ISO)
100
AcDbLine
 10
313.0538951820453
 20
260.801416516035
 30
0.0
 11
313.0538951820453
 21
266.2014165160349
 31
0.0
  0
LINE
  5
148
330
75
100
AcDbEntity
  8
Visible (ISO)
100
AcDbLine
 10
311.0538951820453
 20
258.801416516035
 30
0.0
 11
313.0538951820453
 21
260.801416516035
 31
0.0
  0
LINE
  5
149
330
75
100
AcDbEntity
  8
Visible (ISO)
100
AcDbLine
 10
311.0538951820453
 20
252.001416516035
 30
0.0
 11
311.0538951820453
 21
258.801416516035
 31
0.0
  0
LINE
  5
14A
330
75
100
AcDbEntity
  8
Visible (ISO)
100
AcDbLine
 10
306.6538951820453
 20
252.001416516035
 30
0.0
 11
311.0538951820453
 21
252.001416516035
 31
0.0
  0
LINE
  5
14B
330
75
100
AcDbEntity
  8
Visible (ISO)
100
AcDbLine
 10
306.6538951820453
 20
258.801416516035
 30
0.0
 11
306.6538951820453
 21
252.001416516035
 31
0.0
  0
LINE
  5
14C
330
75
100
AcDbEntity
  8
Visible (ISO)
100
AcDbLine
 10
304.6538951820453
 20
260.801416516035
 30
0.0
 11
306.6538951820453
 21
258.801416516035
 31
0.0
  0
LINE
  5
14D
330
75
100
AcDbEntity
  8
Visible (ISO)
100
AcDbLine
 10
276.3538951820454
 20
155.9014165160349
 30
0.0
 11
275.3538951820453
 21
155.9014165160349
 31
0.0
  0
LINE
  5
14E
330
75
100
AcDbEntity
  8
Visible (ISO)
100
AcDbLine
 10
276.3538951820454
 20
270.901416516035
 30
0.0
 11
275.3538951820453
 21
270.901416516035
 31
0.0
  0
LINE
  5
14F
330
75
100
AcDbEntity
  8
Visible (ISO)
100
AcDbLine
 10
275.3538951820452
 20
247.2264165160352
 30
0.0
 11
275.3538951820452
 21
179.7764165160347
 31
0.0
  0
LINE
  5
150
330
75
100
AcDbEntity
  8
Visible (ISO)
100
AcDbLine
 10
275.3538951820451
 20
155.9014165160349
 30
0.0
 11
275.3538951820453
 21
177.2408826101022
 31
0.0
  0
LINE
  5
151
330
75
100
AcDbEntity
  8
Visible (ISO)
100
AcDbLine
 10
275.3538951820453
 20
249.7619504219677
 30
0.0
 11
275.3538951820451
 21
270.901416516035
 31
0.0
  0
LINE
  5
152
330
75
100
AcDbEntity
  8
Visible (ISO)
100
AcDbLine
 10
273.8538951820451
 20
249.7619504219677
 30
0.0
 11
273.8538951820451
 21
177.2408826101022
 31
0.0
  0
LINE
  5
153
330
75
100
AcDbEntity
  8
Visible (ISO)
100
AcDbLine
 10
273.8538951820453
 20
249.7619504219677
 30
0.0
 11
273.8538951820451
 21
270.901416516035
 31
0.0
  0
LINE
  5
154
330
75
100
AcDbEntity
  8
Visible (ISO)
100
AcDbLine
 10
273.8538951820451
 20
155.9014165160349
 30
0.0
 11
273.8538951820453
 21
177.2408826101022
 31
0.0
  0
LINE
  5
155
330
75
100
AcDbEntity
  8
Visible (ISO)
100
AcDbLine
 10
273.8538951820451
 20
155.9014165160349
 30
0.0
 11
275.3538951820451
 21
155.9014165160349
 31
0.0
  0
LINE
  5
156
330
75
100
AcDbEntity
  8
Visible (ISO)
100
AcDbLine
 10
275.3538951820451
 20
270.901416516035
 30
0.0
 11
273.8538951820451
 21
270.901416516035
 31
0.0
  0
ARC
  5
157
330
75
100
AcDbEntity
  8
Visible (ISO)
100
AcDbCircle
 10
276.3538951820453
 20
249.7619504219677
 30
0.0
 40
1.000000000000004
100
AcDbArc
 50
180.0
 51
225.0000000000028
  0
ARC
  5
158
330
75
100
AcDbEntity
  8
Visible (ISO)
100
AcDbCircle
 10
276.3538951820454
 20
249.7619504219678
 30
0.0
 40
2.500000000000031
100
AcDbArc
 50
180.0
 51
225.0000000000006
  0
LINE
  5
159
330
75
100
AcDbEntity
  8
Visible (ISO)
100
AcDbLine
 10
274.5861282290789
 20
247.9941834690013
 30
0.0
 11
278.0610019632319
 21
244.5193097348485
 31
0.0
  0
ARC
  5
15A
330
75
100
AcDbEntity
  8
Visible (ISO)
100
AcDbCircle
 10
277.3538951820453
 20
243.8122029536619
 30
0.0
 40
0.9999999999999822
100
AcDbArc
 50
0.0
 51
44.99999999999857
  0
LINE
  5
15B
330
75
100
AcDbEntity
  8
Visible (ISO)
100
AcDbLine
 10
278.3538951820453
 20
243.8122029536619
 30
0.0
 11
278.3538951820453
 21
232.226416516035
 31
0.0
  0
LINE
  5
15C
330
75
100
AcDbEntity
  8
Visible (ISO)
100
AcDbLine
 10
278.3538951820453
 20
232.226416516035
 30
0.0
 11
279.8538951820453
 21
232.226416516035
 31
0.0
  0
LINE
  5
15D
330
75
100
AcDbEntity
  8
Visible (ISO)
100
AcDbLine
 10
279.8538951820453
 20
232.226416516035
 30
0.0
 11
279.8538951820453
 21
243.8122029536619
 31
0.0
  0
ARC
  5
15E
330
75
100
AcDbEntity
  8
Visible (ISO)
100
AcDbCircle
 10
277.3538951820453
 20
243.8122029536619
 30
0.0
 40
2.499999999999964
100
AcDbArc
 50
0.0
 51
45.0
  0
LINE
  5
15F
330
75
100
AcDbEntity
  8
Visible (ISO)
100
AcDbLine
 10
279.1216621350117
 20
245.5799699066283
 30
0.0
 11
275.6467884008588
 21
249.0548436407812
 31
0.0
  0
ARC
  5
160
330
75
100
AcDbEntity
  8
Visible (ISO)
100
AcDbCircle
 10
276.3538951820453
 20
177.2408826101021
 30
0.0
 40
1.000000000000023
100
AcDbArc
 50
134.9999999999971
 51
180.0
  0
LINE
  5
161
330
75
100
AcDbEntity
  8
Visible (ISO)
100
AcDbLine
 10
279.1216621350117
 20
181.4228631254416
 30
0.0
 11
275.6467884008588
 21
177.9479893912887
 31
0.0
  0
ARC
  5
162
330
75
100
AcDbEntity
  8
Visible (ISO)
100
AcDbCircle
 10
277.3538951820453
 20
183.1906300784079
 30
0.0
 40
2.499999999999986
100
AcDbArc
 50
315.0000000000006
 51
0.0
  0
LINE
  5
163
330
75
100
AcDbEntity
  8
Visible (ISO)
100
AcDbLine
 10
279.8538951820453
 20
194.7764165160349
 30
0.0
 11
279.8538951820453
 21
183.190630078408
 31
0.0
  0
LINE
  5
164
330
75
100
AcDbEntity
  8
Visible (ISO)
100
AcDbLine
 10
278.3538951820453
 20
194.7764165160349
 30
0.0
 11
279.8538951820453
 21
194.7764165160349
 31
0.0
  0
LINE
  5
165
330
75
100
AcDbEntity
  8
Visible (ISO)
100
AcDbLine
 10
278.3538951820453
 20
183.190630078408
 30
0.0
 11
278.3538951820453
 21
194.7764165160349
 31
0.0
  0
ARC
  5
166
330
75
100
AcDbEntity
  8
Visible (ISO)
100
AcDbCircle
 10
277.3538951820453
 20
183.1906300784079
 30
0.0
 40
0.9999999999999978
100
AcDbArc
 50
315.0000000000029
 51
0.0
  0
LINE
  5
167
330
75
100
AcDbEntity
  8
Visible (ISO)
100
AcDbLine
 10
274.5861282290789
 20
179.0086495630685
 30
0.0
 11
278.0610019632319
 21
182.4835232972214
 31
0.0
  0
ARC
  5
168
330
75
100
AcDbEntity
  8
Visible (ISO)
100
AcDbCircle
 10
276.3538951820454
 20
177.2408826101021
 30
0.0
 40
2.500000000000044
100
AcDbArc
 50
134.9999999999994
 51
180.0
  0
LINE
  5
169
330
75
100
AcDbEntity
  8
Visible (ISO)
100
AcDbLine
 10
278.3538951820453
 20
186.9514165160349
 30
0.0
 11
277.1538951820454
 21
186.9514165160349
 31
0.0
  0
LINE
  5
16A
330
75
100
AcDbEntity
  8
Visible (ISO)
100
AcDbLine
 10
278.3538951820453
 20
191.4514165160349
 30
0.0
 11
277.1538951820454
 21
191.4514165160349
 31
0.0
  0
LINE
  5
16B
330
75
100
AcDbEntity
  8
Visible (ISO)
100
AcDbLine
 10
278.3538951820453
 20
235.551416516035
 30
0.0
 11
277.1538951820454
 21
235.551416516035
 31
0.0
  0
LINE
  5
16C
330
75
100
AcDbEntity
  8
Visible (ISO)
100
AcDbLine
 10
278.3538951820453
 20
240.051416516035
 30
0.0
 11
277.1538951820454
 21
240.051416516035
 31
0.0
  0
LINE
  5
16D
330
75
100
AcDbEntity
  8
Hidden (ISO)
100
AcDbLine
 10
275.3538951820452
 20
249.7619504219677
 30
0.0
 11
275.3538951820452
 21
247.2264165160352
 31
0.0
  0
LINE
  5
16E
330
75
100
AcDbEntity
  8
Hidden (ISO)
100
AcDbLine
 10
275.3538951820452
 20
179.7764165160347
 30
0.0
 11
275.3538951820452
 21
177.2408826101022
 31
0.0
  0
LINE
  5
16F
330
75
100
AcDbEntity
  8
Hidden (ISO)
100
AcDbLine
 10
275.3538951820452
 20
252.726416516035
 30
0.0
 11
273.8538951820451
 21
252.726416516035
 31
0.0
  0
LINE
  5
170
330
75
100
AcDbEntity
  8
Hidden (ISO)
100
AcDbLine
 10
275.3538951820453
 20
199.7764165160349
 30
0.0
 11
273.8538951820453
 21
199.7764165160349
 31
0.0
  0
LINE
  5
171
330
75
100
AcDbEntity
  8
Hidden (ISO)
100
AcDbLine
 10
275.3538951820452
 20
174.2764165160349
 30
0.0
 11
273.8538951820451
 21
174.2764165160349
 31
0.0
  0
LINE
  5
172
330
75
100
AcDbEntity
  8
Hidden (ISO)
100
AcDbLine
 10
275.3538951820452
 20
227.226416516035
 30
0.0
 11
273.8538951820453
 21
227.226416516035
 31
0.0
  0
ARC
  5
173
330
75
100
AcDbEntity
  8
Hidden (ISO)
100
AcDbCircle
 10
278.3538951820453
 20
234.751416516035
 30
0.0
 40
1.5
100
AcDbArc
 50
0.0
 51
68.9605302186832
  0
ARC
  5
174
330
75
100
AcDbEntity
  8
Hidden (ISO)
100
AcDbCircle
 10
278.3538951820453
 20
240.851416516035
 30
0.0
 40
1.5
100
AcDbArc
 50
291.0394697813168
 51
0.0
  0
ARC
  5
175
330
75
100
AcDbEntity
  8
Hidden (ISO)
100
AcDbCircle
 10
278.3538951820453
 20
192.2514165160349
 30
0.0
 40
1.5
100
AcDbArc
 50
291.039469781318
 51
0.0
  0
ARC
  5
176
330
75
100
AcDbEntity
  8
Hidden (ISO)
100
AcDbCircle
 10
278.3538951820453
 20
186.1514165160349
 30
0.0
 40
1.5
100
AcDbArc
 50
0.0
 51
68.9605302186832
  0
CIRCLE
  5
177
330
75
100
AcDbEntity
  8
Visible (ISO)
100
AcDbCircle
 10
393.8823181984389
 20
189.2014165160349
 30
0.0
 40
1.65
  0
CIRCLE
  5
178
330
75
100
AcDbEntity
  8
Visible (ISO)
100
AcDbCircle
 10
442.3823181984388
 20
237.801416516035
 30
0.0
 40
1.65
  0
CIRCLE
  5
179
330
75
100
AcDbEntity
  8
Visible (ISO)
100
AcDbCircle
 10
393.8823181984389
 20
237.801416516035
 30
0.0
 40
1.65
  0
CIRCLE
  5
17A
330
75
100
AcDbEntity
  8
Visible (ISO)
100
AcDbCircle
 10
442.3823181984388
 20
189.2014165160349
 30
0.0
 40
1.65
  0
CIRCLE
  5
17B
330
75
100
AcDbEntity
  8
Visible (ISO)
100
AcDbCircle
 10
393.8823181984389
 20
189.2014165160349
 30
0.0
 40
2.249999999999999
  0
CIRCLE
  5
17C
330
75
100
AcDbEntity
  8
Visible (ISO)
100
AcDbCircle
 10
393.8823181984389
 20
237.801416516035
 30
0.0
 40
2.249999999999999
  0
CIRCLE
  5
17D
330
75
100
AcDbEntity
  8
Visible (ISO)
100
AcDbCircle
 10
442.3823181984388
 20
189.2014165160349
 30
0.0
 40
2.250000000000001
  0
CIRCLE
  5
17E
330
75
100
AcDbEntity
  8
Visible (ISO)
100
AcDbCircle
 10
442.3823181984388
 20
237.801416516035
 30
0.0
 40
2.250000000000001
  0
LINE
  5
17F
330
75
100
AcDbEntity
  8
Visible (ISO)
100
AcDbLine
 10
384.6323181984402
 20
285.901416516035
 30
0.0
 11
384.6323181984396
 21
283.9014165160349
 31
0.0
  0
LINE
  5
180
330
75
100
AcDbEntity
  8
Visible (ISO)
100
AcDbLine
 10
384.6323181984396
 20
283.9014165160349
 30
0.0
 11
384.6323181984396
 21
270.901416516035
 31
0.0
  0
LINE
  5
181
330
75
100
AcDbEntity
  8
Visible (ISO)
100
AcDbLine
 10
384.6323181984396
 20
155.9014165160349
 30
0.0
 11
384.6323181984396
 21
142.9014165160349
 31
0.0
  0
LINE
  5
182
330
75
100
AcDbEntity
  8
Visible (ISO)
100
AcDbLine
 10
384.6323181984396
 20
142.9014165160349
 30
0.0
 11
384.6323181984402
 21
140.901416516035
 31
0.0
  0
LINE
  5
183
330
75
100
AcDbEntity
  8
Visible (ISO)
100
AcDbLine
 10
383.1323181984402
 20
140.901416516035
 30
0.0
 11
383.1323181984396
 21
142.9014165160349
 31
0.0
  0
LINE
  5
184
330
75
100
AcDbEntity
  8
Visible (ISO)
100
AcDbLine
 10
383.1323181984396
 20
155.9014165160349
 30
0.0
 11
383.1323181984396
 21
142.9014165160349
 31
0.0
  0
LINE
  5
185
330
75
100
AcDbEntity
  8
Visible (ISO)
100
AcDbLine
 10
383.1323181984386
 20
155.9014165160349
 30
0.0
 11
383.1323181984386
 21
270.901416516035
 31
0.0
  0
LINE
  5
186
330
75
100
AcDbEntity
  8
Visible (ISO)
100
AcDbLine
 10
383.1323181984396
 20
283.9014165160349
 30
0.0
 11
383.1323181984396
 21
270.901416516035
 31
0.0
  0
LINE
  5
187
330
75
100
AcDbEntity
  8
Visible (ISO)
100
AcDbLine
 10
383.1323181984396
 20
283.9014165160349
 30
0.0
 11
383.1323181984402
 21
285.901416516035
 31
0.0
  0
LINE
  5
188
330
75
100
AcDbEntity
  8
Visible (ISO)
100
AcDbLine
 10
384.6323181984402
 20
140.901416516035
 30
0.0
 11
383.1323181984402
 21
140.901416516035
 31
0.0
  0
LINE
  5
189
330
75
100
AcDbEntity
  8
Visible (ISO)
100
AcDbLine
 10
383.1323181984402
 20
285.901416516035
 30
0.0
 11
384.6323181984402
 21
285.901416516035
 31
0.0
  0
LINE
  5
18A
330
75
100
AcDbEntity
  8
Visible (ISO)
100
AcDbLine
 10
384.6323181984396
 20
283.9014165160349
 30
0.0
 11
383.1323181984396
 21
283.9014165160349
 31
0.0
  0
LINE
  5
18B
330
75
100
AcDbEntity
  8
Visible (ISO)
100
AcDbLine
 10
383.1323181984396
 20
142.9014165160349
 30
0.0
 11
384.6323181984396
 21
142.9014165160349
 31
0.0
  0
LINE
  5
18C
330
75
100
AcDbEntity
  8
Visible (ISO)
100
AcDbLine
 10
385.6323181984379
 20
155.9014165160349
 30
0.0
 11
383.1323181984386
 21
155.9014165160349
 31
0.0
  0
LINE
  5
18D
330
75
100
AcDbEntity
  8
Visible (ISO)
100
AcDbLine
 10
385.6323181984379
 20
270.901416516035
 30
0.0
 11
383.1323181984386
 21
270.901416516035
 31
0.0
  0
LINE
  5
18E
330
75
100
AcDbEntity
  8
Visible (ISO)
100
AcDbLine
 10
436.6323181984378
 20
252.726416516035
 30
0.0
 11
436.6323181984378
 21
174.2764165160349
 31
0.0
  0
LINE
  5
18F
330
75
100
AcDbEntity
  8
Visible (ISO)
100
AcDbLine
 10
438.6323181984377
 20
252.726416516035
 30
0.0
 11
436.6323181984378
 21
252.726416516035
 31
0.0
  0
LINE
  5
190
330
75
100
AcDbEntity
  8
Visible (ISO)
100
AcDbLine
 10
438.6323181984377
 20
252.726416516035
 30
0.0
 11
438.6323181984377
 21
249.7619504219677
 31
0.0
  0
LINE
  5
191
330
75
100
AcDbEntity
  8
Visible (ISO)
100
AcDbLine
 10
446.1323181984377
 20
249.7619504219677
 30
0.0
 11
446.1323181984377
 21
270.901416516035
 31
0.0
  0
LINE
  5
192
330
75
100
AcDbEntity
  8
Visible (ISO)
100
AcDbLine
 10
446.1323181984377
 20
270.901416516035
 30
0.0
 11
385.6323181984378
 21
270.901416516035
 31
0.0
  0
LINE
  5
193
330
75
100
AcDbEntity
  8
Visible (ISO)
100
AcDbLine
 10
446.1323181984377
 20
155.9014165160349
 30
0.0
 11
385.6323181984378
 21
155.9014165160349
 31
0.0
  0
LINE
  5
194
330
75
100
AcDbEntity
  8
Visible (ISO)
100
AcDbLine
 10
446.1323181984377
 20
155.9014165160349
 30
0.0
 11
446.1323181984377
 21
177.2408826101022
 31
0.0
  0
LINE
  5
195
330
75
100
AcDbEntity
  8
Visible (ISO)
100
AcDbLine
 10
438.6323181984377
 20
174.2764165160349
 30
0.0
 11
438.6323181984377
 21
177.2408826101022
 31
0.0
  0
LINE
  5
196
330
75
100
AcDbEntity
  8
Visible (ISO)
100
AcDbLine
 10
436.6323181984378
 20
174.2764165160349
 30
0.0
 11
438.6323181984377
 21
174.2764165160349
 31
0.0
  0
LINE
  5
197
330
75
100
AcDbEntity
  8
Visible (ISO)
100
AcDbLine
 10
388.1323181984378
 20
199.7764165160349
 30
0.0
 11
388.1323181984378
 21
174.2764165160349
 31
0.0
  0
LINE
  5
198
330
75
100
AcDbEntity
  8
Visible (ISO)
100
AcDbLine
 10
399.6323181984378
 20
199.7764165160349
 30
0.0
 11
388.1323181984378
 21
199.7764165160349
 31
0.0
  0
LINE
  5
199
330
75
100
AcDbEntity
  8
Visible (ISO)
100
AcDbLine
 10
399.6323181984378
 20
174.2764165160349
 30
0.0
 11
399.6323181984378
 21
199.7764165160349
 31
0.0
  0
LINE
  5
19A
330
75
100
AcDbEntity
  8
Visible (ISO)
100
AcDbLine
 10
397.6323181984378
 20
174.2764165160349
 30
0.0
 11
399.6323181984378
 21
174.2764165160349
 31
0.0
  0
LINE
  5
19B
330
75
100
AcDbEntity
  8
Visible (ISO)
100
AcDbLine
 10
397.6323181984378
 20
174.2764165160349
 30
0.0
 11
397.6323181984378
 21
177.2408826101022
 31
0.0
  0
LINE
  5
19C
330
75
100
AcDbEntity
  8
Visible (ISO)
100
AcDbLine
 10
390.1323181984378
 20
174.2764165160349
 30
0.0
 11
390.1323181984378
 21
177.2408826101022
 31
0.0
  0
LINE
  5
19D
330
75
100
AcDbEntity
  8
Visible (ISO)
100
AcDbLine
 10
388.1323181984378
 20
174.2764165160349
 30
0.0
 11
390.1323181984378
 21
174.2764165160349
 31
0.0
  0
LINE
  5
19E
330
75
100
AcDbEntity
  8
Visible (ISO)
100
AcDbLine
 10
388.1323181984378
 20
252.726416516035
 30
0.0
 11
388.1323181984378
 21
227.226416516035
 31
0.0
  0
LINE
  5
19F
330
75
100
AcDbEntity
  8
Visible (ISO)
100
AcDbLine
 10
390.1323181984378
 20
252.726416516035
 30
0.0
 11
388.1323181984378
 21
252.726416516035
 31
0.0
  0
LINE
  5
1A0
330
75
100
AcDbEntity
  8
Visible (ISO)
100
AcDbLine
 10
390.1323181984378
 20
252.726416516035
 30
0.0
 11
390.1323181984378
 21
249.7619504219677
 31
0.0
  0
LINE
  5
1A1
330
75
100
AcDbEntity
  8
Visible (ISO)
100
AcDbLine
 10
397.6323181984378
 20
252.726416516035
 30
0.0
 11
397.6323181984378
 21
249.7619504219677
 31
0.0
  0
LINE
  5
1A2
330
75
100
AcDbEntity
  8
Visible (ISO)
100
AcDbLine
 10
399.6323181984378
 20
252.726416516035
 30
0.0
 11
397.6323181984378
 21
252.726416516035
 31
0.0
  0
LINE
  5
1A3
330
75
100
AcDbEntity
  8
Visible (ISO)
100
AcDbLine
 10
399.6323181984378
 20
227.226416516035
 30
0.0
 11
399.6323181984378
 21
252.726416516035
 31
0.0
  0
LINE
  5
1A4
330
75
100
AcDbEntity
  8
Visible (ISO)
100
AcDbLine
 10
388.1323181984378
 20
227.226416516035
 30
0.0
 11
399.6323181984378
 21
227.226416516035
 31
0.0
  0
LINE
  5
1A5
330
75
100
AcDbEntity
  8
Visible (ISO)
100
AcDbLine
 10
390.1323181984392
 20
243.8122029536619
 30
0.0
 11
390.1323181984392
 21
232.226416516035
 31
0.0
  0
LINE
  5
1A6
330
75
100
AcDbEntity
  8
Visible (ISO)
100
AcDbLine
 10
390.132318198439
 20
244.5193097348485
 30
0.0
 11
390.1323181984391
 21
243.8122029536619
 31
0.0
  0
LINE
  5
1A7
330
75
100
AcDbEntity
  8
Visible (ISO)
100
AcDbLine
 10
390.132318198438
 20
247.9941834690013
 30
0.0
 11
390.1323181984391
 21
244.5193097348485
 31
0.0
  0
LINE
  5
1A8
330
75
100
AcDbEntity
  8
Visible (ISO)
100
AcDbLine
 10
390.132318198438
 20
247.9941834690014
 30
0.0
 11
390.1323181984378
 21
249.7619504219677
 31
0.0
  0
LINE
  5
1A9
330
75
100
AcDbEntity
  8
Visible (ISO)
100
AcDbLine
 10
446.132318198438
 20
247.9941834690014
 30
0.0
 11
446.1323181984377
 21
249.7619504219677
 31
0.0
  0
LINE
  5
1AA
330
75
100
AcDbEntity
  8
Visible (ISO)
100
AcDbLine
 10
446.132318198438
 20
247.9941834690013
 30
0.0
 11
446.132318198439
 21
244.5193097348485
 31
0.0
  0
LINE
  5
1AB
330
75
100
AcDbEntity
  8
Visible (ISO)
100
AcDbLine
 10
446.132318198439
 20
244.5193097348485
 30
0.0
 11
446.1323181984391
 21
243.8122029536619
 31
0.0
  0
LINE
  5
1AC
330
75
100
AcDbEntity
  8
Visible (ISO)
100
AcDbLine
 10
446.1323181984392
 20
243.8122029536619
 30
0.0
 11
446.1323181984392
 21
232.226416516035
 31
0.0
  0
LINE
  5
1AD
330
75
100
AcDbEntity
  8
Visible (ISO)
100
AcDbLine
 10
438.632318198438
 20
179.0086495630685
 30
0.0
 11
438.6323181984378
 21
177.2408826101021
 31
0.0
  0
LINE
  5
1AE
330
75
100
AcDbEntity
  8
Visible (ISO)
100
AcDbLine
 10
438.632318198438
 20
179.0086495630685
 30
0.0
 11
438.6323181984391
 21
182.4835232972214
 31
0.0
  0
LINE
  5
1AF
330
75
100
AcDbEntity
  8
Visible (ISO)
100
AcDbLine
 10
438.6323181984391
 20
182.4835232972214
 30
0.0
 11
438.6323181984391
 21
183.190630078408
 31
0.0
  0
LINE
  5
1B0
330
75
100
AcDbEntity
  8
Visible (ISO)
100
AcDbLine
 10
438.6323181984391
 20
183.190630078408
 30
0.0
 11
438.6323181984391
 21
194.7764165160349
 31
0.0
  0
LINE
  5
1B1
330
75
100
AcDbEntity
  8
Visible (ISO)
100
AcDbLine
 10
438.6323181984391
 20
243.8122029536619
 30
0.0
 11
438.6323181984391
 21
232.226416516035
 31
0.0
  0
LINE
  5
1B2
330
75
100
AcDbEntity
  8
Visible (ISO)
100
AcDbLine
 10
438.6323181984391
 20
244.5193097348485
 30
0.0
 11
438.6323181984391
 21
243.8122029536619
 31
0.0
  0
LINE
  5
1B3
330
75
100
AcDbEntity
  8
Visible (ISO)
100
AcDbLine
 10
438.632318198438
 20
247.9941834690013
 30
0.0
 11
438.6323181984391
 21
244.5193097348485
 31
0.0
  0
LINE
  5
1B4
330
75
100
AcDbEntity
  8
Visible (ISO)
100
AcDbLine
 10
438.632318198438
 20
247.9941834690013
 30
0.0
 11
438.6323181984378
 21
249.7619504219677
 31
0.0
  0
LINE
  5
1B5
330
75
100
AcDbEntity
  8
Visible (ISO)
100
AcDbLine
 10
446.1323181984392
 20
183.190630078408
 30
0.0
 11
446.1323181984392
 21
194.7764165160349
 31
0.0
  0
LINE
  5
1B6
330
75
100
AcDbEntity
  8
Visible (ISO)
100
AcDbLine
 10
446.132318198439
 20
182.4835232972214
 30
0.0
 11
446.1323181984391
 21
183.190630078408
 31
0.0
  0
LINE
  5
1B7
330
75
100
AcDbEntity
  8
Visible (ISO)
100
AcDbLine
 10
446.132318198438
 20
179.0086495630685
 30
0.0
 11
446.132318198439
 21
182.4835232972214
 31
0.0
  0
LINE
  5
1B8
330
75
100
AcDbEntity
  8
Visible (ISO)
100
AcDbLine
 10
446.132318198438
 20
179.0086495630685
 30
0.0
 11
446.1323181984377
 21
177.2408826101021
 31
0.0
  0
LINE
  5
1B9
330
75
100
AcDbEntity
  8
Visible (ISO)
100
AcDbLine
 10
397.6323181984381
 20
247.9941834690014
 30
0.0
 11
397.6323181984378
 21
249.7619504219677
 31
0.0
  0
LINE
  5
1BA
330
75
100
AcDbEntity
  8
Visible (ISO)
100
AcDbLine
 10
397.6323181984381
 20
247.9941834690013
 30
0.0
 11
397.6323181984391
 21
244.5193097348485
 31
0.0
  0
LINE
  5
1BB
330
75
100
AcDbEntity
  8
Visible (ISO)
100
AcDbLine
 10
397.632318198439
 20
244.5193097348485
 30
0.0
 11
397.6323181984391
 21
243.8122029536619
 31
0.0
  0
LINE
  5
1BC
330
75
100
AcDbEntity
  8
Visible (ISO)
100
AcDbLine
 10
397.6323181984392
 20
243.8122029536619
 30
0.0
 11
397.6323181984392
 21
232.226416516035
 31
0.0
  0
LINE
  5
1BD
330
75
100
AcDbEntity
  8
Visible (ISO)
100
AcDbLine
 10
397.6323181984392
 20
183.190630078408
 30
0.0
 11
397.6323181984392
 21
194.7764165160349
 31
0.0
  0
LINE
  5
1BE
330
75
100
AcDbEntity
  8
Visible (ISO)
100
AcDbLine
 10
397.632318198439
 20
182.4835232972214
 30
0.0
 11
397.6323181984391
 21
183.190630078408
 31
0.0
  0
LINE
  5
1BF
330
75
100
AcDbEntity
  8
Visible (ISO)
100
AcDbLine
 10
397.6323181984381
 20
179.0086495630685
 30
0.0
 11
397.6323181984391
 21
182.4835232972214
 31
0.0
  0
LINE
  5
1C0
330
75
100
AcDbEntity
  8
Visible (ISO)
100
AcDbLine
 10
397.6323181984381
 20
179.0086495630686
 30
0.0
 11
397.6323181984378
 21
177.2408826101022
 31
0.0
  0
LINE
  5
1C1
330
75
100
AcDbEntity
  8
Visible (ISO)
100
AcDbLine
 10
390.132318198438
 20
179.0086495630686
 30
0.0
 11
390.1323181984378
 21
177.2408826101022
 31
0.0
  0
LINE
  5
1C2
330
75
100
AcDbEntity
  8
Visible (ISO)
100
AcDbLine
 10
390.132318198438
 20
179.0086495630685
 30
0.0
 11
390.1323181984391
 21
182.4835232972214
 31
0.0
  0
LINE
  5
1C3
330
75
100
AcDbEntity
  8
Visible (ISO)
100
AcDbLine
 10
390.132318198439
 20
182.4835232972214
 30
0.0
 11
390.1323181984391
 21
183.190630078408
 31
0.0
  0
LINE
  5
1C4
330
75
100
AcDbEntity
  8
Visible (ISO)
100
AcDbLine
 10
390.1323181984392
 20
183.190630078408
 30
0.0
 11
390.1323181984392
 21
194.7764165160349
 31
0.0
  0
LINE
  5
1C5
330
75
100
AcDbEntity
  8
Visible (ISO)
100
AcDbLine
 10
390.1323181984392
 20
232.226416516035
 30
0.0
 11
397.6323181984392
 21
232.226416516035
 31
0.0
  0
LINE
  5
1C6
330
75
100
AcDbEntity
  8
Visible (ISO)
100
AcDbLine
 10
438.6323181984391
 20
232.226416516035
 30
0.0
 11
446.1323181984392
 21
232.226416516035
 31
0.0
  0
LINE
  5
1C7
330
75
100
AcDbEntity
  8
Visible (ISO)
100
AcDbLine
 10
438.6323181984391
 20
194.7764165160349
 30
0.0
 11
446.1323181984392
 21
194.7764165160349
 31
0.0
  0
LINE
  5
1C8
330
75
100
AcDbEntity
  8
Visible (ISO)
100
AcDbLine
 10
390.1323181984392
 20
194.7764165160349
 30
0.0
 11
397.6323181984392
 21
194.7764165160349
 31
0.0
  0
LINE
  5
1C9
330
75
100
AcDbEntity
  8
Hidden (ISO)
100
AcDbLine
 10
384.6323181984443
 20
275.401416516035
 30
0.0
 11
383.1323181984443
 21
275.401416516035
 31
0.0
  0
LINE
  5
1CA
330
75
100
AcDbEntity
  8
Hidden (ISO)
100
AcDbLine
 10
384.6323181984386
 20
155.9014165160349
 30
0.0
 11
384.6323181984386
 21
270.901416516035
 31
0.0
  0
LINE
  5
1CB
330
75
100
AcDbEntity
  8
Hidden (ISO)
100
AcDbLine
 10
384.6323181984475
 20
183.0014165160349
 30
0.0
 11
383.1323181984475
 21
183.0014165160349
 31
0.0
  0
LINE
  5
1CC
330
75
100
AcDbEntity
  8
Hidden (ISO)
100
AcDbLine
 10
384.6323181984443
 20
151.4014165160349
 30
0.0
 11
383.1323181984443
 21
151.4014165160349
 31
0.0
  0
LINE
  5
1CD
330
75
100
AcDbEntity
  8
Hidden (ISO)
100
AcDbLine
 10
384.6323181984469
 20
260.801416516035
 30
0.0
 11
383.1323181984469
 21
260.801416516035
 31
0.0
  0
LINE
  5
1CE
330
75
100
AcDbEntity
  8
Hidden (ISO)
100
AcDbLine
 10
384.6323181984469
 20
266.2014165160349
 30
0.0
 11
383.1323181984469
 21
266.2014165160349
 31
0.0
  0
LINE
  5
1CF
330
75
100
AcDbEntity
  8
Hidden (ISO)
100
AcDbLine
 10
384.6323181984475
 20
185.0014165160349
 30
0.0
 11
383.1323181984475
 21
185.0014165160349
 31
0.0
  0
LINE
  5
1D0
330
75
100
AcDbEntity
  8
Hidden (ISO)
100
AcDbLine
 10
384.6323181984475
 20
178.6014165160349
 30
0.0
 11
383.1323181984475
 21
178.6014165160349
 31
0.0
  0
LINE
  5
1D1
330
75
100
AcDbEntity
  8
Hidden (ISO)
100
AcDbLine
 10
384.6323181984475
 20
191.8014165160349
 30
0.0
 11
383.1323181984475
 21
191.8014165160349
 31
0.0
  0
LINE
  5
1D2
330
75
100
AcDbEntity
  8
Hidden (ISO)
100
AcDbLine
 10
384.6323181984417
 20
194.0314165160349
 30
0.0
 11
383.1323181984417
 21
194.0314165160349
 31
0.0
  0
LINE
  5
1D3
330
75
100
AcDbEntity
  8
Hidden (ISO)
100
AcDbLine
 10
384.6323181984475
 20
258.801416516035
 30
0.0
 11
383.1323181984475
 21
258.801416516035
 31
0.0
  0
LINE
  5
1D4
330
75
100
AcDbEntity
  8
Hidden (ISO)
100
AcDbLine
 10
384.6323181984417
 20
195.8314165160349
 30
0.0
 11
383.1323181984417
 21
195.8314165160349
 31
0.0
  0
LINE
  5
1D5
330
75
100
AcDbEntity
  8
Hidden (ISO)
100
AcDbLine
 10
384.6323181984475
 20
252.001416516035
 30
0.0
 11
383.1323181984475
 21
252.001416516035
 31
0.0
  0
LINE
  5
1D6
330
75
100
AcDbEntity
  8
Hidden (ISO)
100
AcDbLine
 10
384.6323181984469
 20
193.8014165160349
 30
0.0
 11
383.1323181984469
 21
193.8014165160349
 31
0.0
  0
LINE
  5
1D7
330
75
100
AcDbEntity
  8
Hidden (ISO)
100
AcDbLine
 10
384.6323181984469
 20
199.201416516035
 30
0.0
 11
383.1323181984469
 21
199.201416516035
 31
0.0
  0
LINE
  5
1D8
330
75
100
AcDbEntity
  8
Hidden (ISO)
100
AcDbLine
 10
384.6323181984482
 20
206.551416516035
 30
0.0
 11
383.1323181984481
 21
206.551416516035
 31
0.0
  0
LINE
  5
1D9
330
75
100
AcDbEntity
  8
Hidden (ISO)
100
AcDbLine
 10
384.6323181984482
 20
211.051416516035
 30
0.0
 11
383.1323181984481
 21
211.051416516035
 31
0.0
  0
LINE
  5
1DA
330
75
100
AcDbEntity
  8
Hidden (ISO)
100
AcDbLine
 10
384.6323181984428
 20
236.4514165160349
 30
0.0
 11
383.1323181984428
 21
236.4514165160349
 31
0.0
  0
LINE
  5
1DB
330
75
100
AcDbEntity
  8
Hidden (ISO)
100
AcDbLine
 10
384.6323181984428
 20
239.1514165160349
 30
0.0
 11
383.1323181984428
 21
239.1514165160349
 31
0.0
  0
LINE
  5
1DC
330
75
100
AcDbEntity
  8
Hidden (ISO)
100
AcDbLine
 10
384.632318198442
 20
278.3014165160349
 30
0.0
 11
383.132318198442
 21
278.3014165160349
 31
0.0
  0
LINE
  5
1DD
330
75
100
AcDbEntity
  8
Hidden (ISO)
100
AcDbLine
 10
384.632318198442
 20
283.501416516035
 30
0.0
 11
383.132318198442
 21
283.501416516035
 31
0.0
  0
LINE
  5
1DE
330
75
100
AcDbEntity
  8
Hidden (ISO)
100
AcDbLine
 10
384.6323181984428
 20
187.8514165160349
 30
0.0
 11
383.1323181984428
 21
187.8514165160349
 31
0.0
  0
LINE
  5
1DF
330
75
100
AcDbEntity
  8
Hidden (ISO)
100
AcDbLine
 10
384.6323181984428
 20
190.5514165160349
 30
0.0
 11
383.1323181984428
 21
190.5514165160349
 31
0.0
  0
LINE
  5
1E0
330
75
100
AcDbEntity
  8
Hidden (ISO)
100
AcDbLine
 10
384.6323181984548
 20
143.301416516035
 30
0.0
 11
383.1323181984547
 21
143.301416516035
 31
0.0
  0
LINE
  5
1E1
330
75
100
AcDbEntity
  8
Hidden (ISO)
100
AcDbLine
 10
384.6323181984548
 20
148.501416516035
 30
0.0
 11
383.1323181984547
 21
148.501416516035
 31
0.0
  0
LINE
  5
1E2
330
75
100
AcDbEntity
  8
Hidden (ISO)
100
AcDbLine
 10
384.632318198442
 20
143.5014165160349
 30
0.0
 11
383.132318198442
 21
143.5014165160349
 31
0.0
  0
LINE
  5
1E3
330
75
100
AcDbEntity
  8
Hidden (ISO)
100
AcDbLine
 10
384.632318198442
 20
148.7014165160349
 30
0.0
 11
383.132318198442
 21
148.7014165160349
 31
0.0
  0
CIRCLE
  5
1E4
330
75
100
AcDbEntity
  8
Visible (ISO)
100
AcDbCircle
 10
218.8254721656348
 20
189.2014165160349
 30
0.0
 40
1.65
  0
CIRCLE
  5
1E5
330
75
100
AcDbEntity
  8
Visible (ISO)
100
AcDbCircle
 10
170.3254721656348
 20
237.801416516035
 30
0.0
 40
1.65
  0
CIRCLE
  5
1E6
330
75
100
AcDbEntity
  8
Visible (ISO)
100
AcDbCircle
 10
218.8254721656348
 20
237.801416516035
 30
0.0
 40
1.65
  0
CIRCLE
  5
1E7
330
75
100
AcDbEntity
  8
Visible (ISO)
100
AcDbCircle
 10
170.3254721656348
 20
189.2014165160349
 30
0.0
 40
1.65
  0
CIRCLE
  5
1E8
330
75
100
AcDbEntity
  8
Hidden (ISO)
100
AcDbCircle
 10
218.8254721656347
 20
189.2014165160349
 30
0.0
 40
2.249999999999999
  0
CIRCLE
  5
1E9
330
75
100
AcDbEntity
  8
Hidden (ISO)
100
AcDbCircle
 10
218.8254721656347
 20
237.801416516035
 30
0.0
 40
2.249999999999999
  0
CIRCLE
  5
1EA
330
75
100
AcDbEntity
  8
Hidden (ISO)
100
AcDbCircle
 10
170.3254721656346
 20
189.2014165160349
 30
0.0
 40
2.249999999999995
  0
CIRCLE
  5
1EB
330
75
100
AcDbEntity
  8
Hidden (ISO)
100
AcDbCircle
 10
170.3254721656346
 20
237.801416516035
 30
0.0
 40
2.249999999999995
  0
LINE
  5
1EC
330
75
100
AcDbEntity
  8
Hidden (ISO)
100
AcDbLine
 10
228.0754721656478
 20
275.401416516035
 30
0.0
 11
229.5754721656479
 21
275.401416516035
 31
0.0
  0
LINE
  5
1ED
330
75
100
AcDbEntity
  8
Hidden (ISO)
100
AcDbLine
 10
228.075472165645
 20
260.801416516035
 30
0.0
 11
229.575472165645
 21
260.801416516035
 31
0.0
  0
LINE
  5
1EE
330
75
100
AcDbEntity
  8
Hidden (ISO)
100
AcDbLine
 10
228.0754721656444
 20
258.801416516035
 30
0.0
 11
229.5754721656444
 21
258.801416516035
 31
0.0
  0
LINE
  5
1EF
330
75
100
AcDbEntity
  8
Hidden (ISO)
100
AcDbLine
 10
228.075472165645
 20
266.2014165160349
 30
0.0
 11
229.575472165645
 21
266.2014165160349
 31
0.0
  0
LINE
  5
1F0
330
75
100
AcDbEntity
  8
Hidden (ISO)
100
AcDbLine
 10
228.075472165645
 20
193.8014165160349
 30
0.0
 11
229.575472165645
 21
193.8014165160349
 31
0.0
  0
LINE
  5
1F1
330
75
100
AcDbEntity
  8
Hidden (ISO)
100
AcDbLine
 10
228.0754721656444
 20
191.8014165160349
 30
0.0
 11
229.5754721656444
 21
191.8014165160349
 31
0.0
  0
LINE
  5
1F2
330
75
100
AcDbEntity
  8
Hidden (ISO)
100
AcDbLine
 10
228.075472165645
 20
199.2014165160349
 30
0.0
 11
229.575472165645
 21
199.201416516035
 31
0.0
  0
LINE
  5
1F3
330
75
100
AcDbEntity
  8
Hidden (ISO)
100
AcDbLine
 10
228.0754721656444
 20
183.0014165160349
 30
0.0
 11
229.5754721656444
 21
183.0014165160349
 31
0.0
  0
LINE
  5
1F4
330
75
100
AcDbEntity
  8
Hidden (ISO)
100
AcDbLine
 10
228.0754721656514
 20
194.0314165160349
 30
0.0
 11
229.5754721656514
 21
194.0314165160349
 31
0.0
  0
LINE
  5
1F5
330
75
100
AcDbEntity
  8
Hidden (ISO)
100
AcDbLine
 10
228.0754721656444
 20
185.0014165160349
 30
0.0
 11
229.5754721656444
 21
185.0014165160349
 31
0.0
  0
LINE
  5
1F6
330
75
100
AcDbEntity
  8
Hidden (ISO)
100
AcDbLine
 10
228.0754721656444
 20
178.6014165160349
 30
0.0
 11
229.5754721656444
 21
178.6014165160349
 31
0.0
  0
LINE
  5
1F7
330
75
100
AcDbEntity
  8
Hidden (ISO)
100
AcDbLine
 10
228.0754721656478
 20
151.4014165160349
 30
0.0
 11
229.5754721656479
 21
151.4014165160349
 31
0.0
  0
LINE
  5
1F8
330
75
100
AcDbEntity
  8
Hidden (ISO)
100
AcDbLine
 10
228.0754721656514
 20
195.8314165160349
 30
0.0
 11
229.5754721656514
 21
195.8314165160349
 31
0.0
  0
LINE
  5
1F9
330
75
100
AcDbEntity
  8
Hidden (ISO)
100
AcDbLine
 10
228.0754721656351
 20
155.9014165160349
 30
0.0
 11
229.5754721656351
 21
155.9014165160349
 31
0.0
  0
LINE
  5
1FA
330
75
100
AcDbEntity
  8
Hidden (ISO)
100
AcDbLine
 10
229.5754721656351
 20
270.901416516035
 30
0.0
 11
228.0754721656351
 21
270.901416516035
 31
0.0
  0
LINE
  5
1FB
330
75
100
AcDbEntity
  8
Hidden (ISO)
100
AcDbLine
 10
228.0754721656444
 20
252.001416516035
 30
0.0
 11
229.5754721656444
 21
252.001416516035
 31
0.0
  0
LINE
  5
1FC
330
75
100
AcDbEntity
  8
Hidden (ISO)
100
AcDbLine
 10
228.0754721656437
 20
211.051416516035
 30
0.0
 11
229.5754721656437
 21
211.051416516035
 31
0.0
  0
LINE
  5
1FD
330
75
100
AcDbEntity
  8
Hidden (ISO)
100
AcDbLine
 10
228.0754721656437
 20
206.551416516035
 30
0.0
 11
229.5754721656437
 21
206.551416516035
 31
0.0
  0
LINE
  5
1FE
330
75
100
AcDbEntity
  8
Hidden (ISO)
100
AcDbLine
 10
228.0754721656502
 20
190.5514165160349
 30
0.0
 11
229.5754721656503
 21
190.5514165160349
 31
0.0
  0
LINE
  5
1FF
330
75
100
AcDbEntity
  8
Hidden (ISO)
100
AcDbLine
 10
228.0754721656502
 20
187.8514165160349
 30
0.0
 11
229.5754721656503
 21
187.8514165160349
 31
0.0
  0
LINE
  5
200
330
75
100
AcDbEntity
  8
Hidden (ISO)
100
AcDbLine
 10
228.0754721656502
 20
148.501416516035
 30
0.0
 11
229.5754721656503
 21
148.501416516035
 31
0.0
  0
LINE
  5
201
330
75
100
AcDbEntity
  8
Hidden (ISO)
100
AcDbLine
 10
228.0754721656502
 20
143.301416516035
 30
0.0
 11
229.5754721656503
 21
143.301416516035
 31
0.0
  0
LINE
  5
202
330
75
100
AcDbEntity
  8
Hidden (ISO)
100
AcDbLine
 10
228.0754721656502
 20
283.501416516035
 30
0.0
 11
229.5754721656503
 21
283.501416516035
 31
0.0
  0
LINE
  5
203
330
75
100
AcDbEntity
  8
Hidden (ISO)
100
AcDbLine
 10
228.0754721656502
 20
278.3014165160349
 30
0.0
 11
229.5754721656503
 21
278.3014165160349
 31
0.0
  0
LINE
  5
204
330
75
100
AcDbEntity
  8
Hidden (ISO)
100
AcDbLine
 10
228.0754721656502
 20
239.1514165160349
 30
0.0
 11
229.5754721656503
 21
239.1514165160349
 31
0.0
  0
LINE
  5
205
330
75
100
AcDbEntity
  8
Hidden (ISO)
100
AcDbLine
 10
228.0754721656502
 20
236.4514165160349
 30
0.0
 11
229.5754721656503
 21
236.4514165160349
 31
0.0
  0
LINE
  5
206
330
75
100
AcDbEntity
  8
Hidden (ISO)
100
AcDbLine
 10
228.0754721656375
 20
148.7014165160349
 30
0.0
 11
229.5754721656375
 21
148.7014165160349
 31
0.0
  0
LINE
  5
207
330
75
100
AcDbEntity
  8
Hidden (ISO)
100
AcDbLine
 10
228.0754721656375
 20
143.5014165160349
 30
0.0
 11
229.5754721656375
 21
143.5014165160349
 31
0.0
  0
LINE
  5
208
330
75
100
AcDbEntity
  8
Visible (ISO)
100
AcDbLine
 10
228.075472165652
 20
140.901416516035
 30
0.0
 11
228.0754721656526
 21
142.901416516035
 31
0.0
  0
LINE
  5
209
330
75
100
AcDbEntity
  8
Visible (ISO)
100
AcDbLine
 10
228.0754721656526
 20
142.901416516035
 30
0.0
 11
228.0754721656526
 21
283.9014165160349
 31
0.0
  0
LINE
  5
20A
330
75
100
AcDbEntity
  8
Visible (ISO)
100
AcDbLine
 10
228.0754721656526
 20
283.9014165160349
 30
0.0
 11
228.075472165652
 21
285.9014165160349
 31
0.0
  0
LINE
  5
20B
330
75
100
AcDbEntity
  8
Visible (ISO)
100
AcDbLine
 10
229.575472165652
 20
285.901416516035
 30
0.0
 11
229.5754721656526
 21
283.9014165160349
 31
0.0
  0
LINE
  5
20C
330
75
100
AcDbEntity
  8
Visible (ISO)
100
AcDbLine
 10
229.5754721656526
 20
142.901416516035
 30
0.0
 11
229.5754721656526
 21
283.9014165160349
 31
0.0
  0
LINE
  5
20D
330
75
100
AcDbEntity
  8
Visible (ISO)
100
AcDbLine
 10
229.5754721656526
 20
142.901416516035
 30
0.0
 11
229.575472165652
 21
140.901416516035
 31
0.0
  0
LINE
  5
20E
330
75
100
AcDbEntity
  8
Visible (ISO)
100
AcDbLine
 10
229.575472165652
 20
140.901416516035
 30
0.0
 11
228.075472165652
 21
140.901416516035
 31
0.0
  0
LINE
  5
20F
330
75
100
AcDbEntity
  8
Visible (ISO)
100
AcDbLine
 10
229.5754721656526
 20
283.9014165160349
 30
0.0
 11
228.0754721656526
 21
283.9014165160349
 31
0.0
  0
LINE
  5
210
330
75
100
AcDbEntity
  8
Visible (ISO)
100
AcDbLine
 10
228.0754721656526
 20
142.901416516035
 30
0.0
 11
229.5754721656526
 21
142.901416516035
 31
0.0
  0
LINE
  5
211
330
75
100
AcDbEntity
  8
Visible (ISO)
100
AcDbLine
 10
228.075472165652
 20
285.9014165160349
 30
0.0
 11
229.575472165652
 21
285.901416516035
 31
0.0
  0
LINE
  5
212
330
75
100
AcDbEntity
  8
Visible (ISO)
100
AcDbLine
 10
228.0754721656341
 20
155.9014165160349
 30
0.0
 11
227.0754721656337
 21
155.9014165160349
 31
0.0
  0
LINE
  5
213
330
75
100
AcDbEntity
  8
Visible (ISO)
100
AcDbLine
 10
228.0754721656341
 20
270.901416516035
 30
0.0
 11
227.0754721656337
 21
270.901416516035
 31
0.0
  0
LINE
  5
214
330
75
100
AcDbEntity
  8
Visible (ISO)
100
AcDbLine
 10
174.0754721656338
 20
252.726416516035
 30
0.0
 11
176.0754721656337
 21
252.726416516035
 31
0.0
  0
LINE
  5
215
330
75
100
AcDbEntity
  8
Visible (ISO)
100
AcDbLine
 10
176.0754721656337
 20
252.726416516035
 30
0.0
 11
176.0754721656337
 21
174.2764165160349
 31
0.0
  0
LINE
  5
216
330
75
100
AcDbEntity
  8
Visible (ISO)
100
AcDbLine
 10
176.0754721656337
 20
174.2764165160349
 30
0.0
 11
174.0754721656338
 21
174.2764165160349
 31
0.0
  0
LINE
  5
217
330
75
100
AcDbEntity
  8
Visible (ISO)
100
AcDbLine
 10
174.0754721656338
 20
177.2408826101022
 30
0.0
 11
174.0754721656338
 21
174.2764165160349
 31
0.0
  0
LINE
  5
218
330
75
100
AcDbEntity
  8
Visible (ISO)
100
AcDbLine
 10
166.5754721656337
 20
155.9014165160349
 30
0.0
 11
166.5754721656338
 21
177.2408826101022
 31
0.0
  0
LINE
  5
219
330
75
100
AcDbEntity
  8
Visible (ISO)
100
AcDbLine
 10
166.5754721656337
 20
155.9014165160349
 30
0.0
 11
227.0754721656337
 21
155.9014165160349
 31
0.0
  0
LINE
  5
21A
330
75
100
AcDbEntity
  8
Visible (ISO)
100
AcDbLine
 10
166.5754721656337
 20
270.901416516035
 30
0.0
 11
227.0754721656337
 21
270.901416516035
 31
0.0
  0
LINE
  5
21B
330
75
100
AcDbEntity
  8
Visible (ISO)
100
AcDbLine
 10
166.5754721656338
 20
249.7619504219677
 30
0.0
 11
166.5754721656337
 21
270.901416516035
 31
0.0
  0
LINE
  5
21C
330
75
100
AcDbEntity
  8
Visible (ISO)
100
AcDbLine
 10
174.0754721656338
 20
249.7619504219677
 30
0.0
 11
174.0754721656338
 21
252.726416516035
 31
0.0
  0
LINE
  5
21D
330
75
100
AcDbEntity
  8
Visible (ISO)
100
AcDbLine
 10
213.0754721656338
 20
252.726416516035
 30
0.0
 11
215.0754721656338
 21
252.726416516035
 31
0.0
  0
LINE
  5
21E
330
75
100
AcDbEntity
  8
Visible (ISO)
100
AcDbLine
 10
215.0754721656338
 20
249.7619504219677
 30
0.0
 11
215.0754721656338
 21
252.726416516035
 31
0.0
  0
LINE
  5
21F
330
75
100
AcDbEntity
  8
Visible (ISO)
100
AcDbLine
 10
222.5754721656338
 20
249.7619504219677
 30
0.0
 11
222.5754721656338
 21
252.726416516035
 31
0.0
  0
LINE
  5
220
330
75
100
AcDbEntity
  8
Visible (ISO)
100
AcDbLine
 10
222.5754721656338
 20
252.726416516035
 30
0.0
 11
224.5754721656338
 21
252.726416516035
 31
0.0
  0
LINE
  5
221
330
75
100
AcDbEntity
  8
Visible (ISO)
100
AcDbLine
 10
224.5754721656338
 20
252.726416516035
 30
0.0
 11
224.5754721656338
 21
227.226416516035
 31
0.0
  0
LINE
  5
222
330
75
100
AcDbEntity
  8
Visible (ISO)
100
AcDbLine
 10
224.5754721656338
 20
227.226416516035
 30
0.0
 11
213.0754721656336
 21
227.226416516035
 31
0.0
  0
LINE
  5
223
330
75
100
AcDbEntity
  8
Visible (ISO)
100
AcDbLine
 10
213.0754721656336
 20
227.226416516035
 30
0.0
 11
213.0754721656338
 21
252.726416516035
 31
0.0
  0
LINE
  5
224
330
75
100
AcDbEntity
  8
Visible (ISO)
100
AcDbLine
 10
213.0754721656338
 20
199.7764165160349
 30
0.0
 11
224.5754721656338
 21
199.7764165160349
 31
0.0
  0
LINE
  5
225
330
75
100
AcDbEntity
  8
Visible (ISO)
100
AcDbLine
 10
224.5754721656338
 20
199.7764165160349
 30
0.0
 11
224.5754721656338
 21
174.2764165160349
 31
0.0
  0
LINE
  5
226
330
75
100
AcDbEntity
  8
Visible (ISO)
100
AcDbLine
 10
224.5754721656338
 20
174.2764165160349
 30
0.0
 11
222.5754721656338
 21
174.2764165160349
 31
0.0
  0
LINE
  5
227
330
75
100
AcDbEntity
  8
Visible (ISO)
100
AcDbLine
 10
222.5754721656338
 20
177.2408826101022
 30
0.0
 11
222.5754721656338
 21
174.2764165160349
 31
0.0
  0
LINE
  5
228
330
75
100
AcDbEntity
  8
Visible (ISO)
100
AcDbLine
 10
215.0754721656338
 20
177.2408826101022
 30
0.0
 11
215.0754721656338
 21
174.2764165160349
 31
0.0
  0
LINE
  5
229
330
75
100
AcDbEntity
  8
Visible (ISO)
100
AcDbLine
 10
215.0754721656338
 20
174.2764165160349
 30
0.0
 11
213.0754721656336
 21
174.2764165160349
 31
0.0
  0
LINE
  5
22A
330
75
100
AcDbEntity
  8
Visible (ISO)
100
AcDbLine
 10
213.0754721656336
 20
174.2764165160349
 30
0.0
 11
213.0754721656338
 21
199.7764165160349
 31
0.0
  0
LINE
  5
22B
330
75
100
AcDbEntity
  8
Visible (ISO)
100
AcDbLine
 10
166.5754721656338
 20
249.0548436407812
 30
0.0
 11
166.5754721656338
 21
249.7619504219677
 31
0.0
  0
LINE
  5
22C
330
75
100
AcDbEntity
  8
Visible (ISO)
100
AcDbLine
 10
174.0754721656339
 20
249.0548436407812
 30
0.0
 11
174.0754721656338
 21
249.7619504219677
 31
0.0
  0
LINE
  5
22D
330
75
100
AcDbEntity
  8
Visible (ISO)
100
AcDbLine
 10
222.5754721656338
 20
249.0548436407812
 30
0.0
 11
222.5754721656338
 21
249.7619504219677
 31
0.0
  0
LINE
  5
22E
330
75
100
AcDbEntity
  8
Visible (ISO)
100
AcDbLine
 10
222.5754721656349
 20
245.5799699066283
 30
0.0
 11
222.5754721656339
 21
249.0548436407812
 31
0.0
  0
LINE
  5
22F
330
75
100
AcDbEntity
  8
Visible (ISO)
100
AcDbLine
 10
222.5754721656349
 20
245.5799699066283
 30
0.0
 11
222.5754721656351
 21
243.8122029536619
 31
0.0
  0
LINE
  5
230
330
75
100
AcDbEntity
  8
Visible (ISO)
100
AcDbLine
 10
222.5754721656351
 20
232.226416516035
 30
0.0
 11
222.5754721656351
 21
243.8122029536619
 31
0.0
  0
LINE
  5
231
330
75
100
AcDbEntity
  8
Visible (ISO)
100
AcDbLine
 10
215.0754721656338
 20
177.9479893912887
 30
0.0
 11
215.0754721656338
 21
177.2408826101022
 31
0.0
  0
LINE
  5
232
330
75
100
AcDbEntity
  8
Visible (ISO)
100
AcDbLine
 10
222.5754721656338
 20
177.9479893912887
 30
0.0
 11
222.5754721656338
 21
177.2408826101022
 31
0.0
  0
LINE
  5
233
330
75
100
AcDbEntity
  8
Visible (ISO)
100
AcDbLine
 10
166.575472165635
 20
232.226416516035
 30
0.0
 11
166.575472165635
 21
243.8122029536619
 31
0.0
  0
LINE
  5
234
330
75
100
AcDbEntity
  8
Visible (ISO)
100
AcDbLine
 10
166.5754721656349
 20
245.5799699066283
 30
0.0
 11
166.5754721656351
 21
243.8122029536619
 31
0.0
  0
LINE
  5
235
330
75
100
AcDbEntity
  8
Visible (ISO)
100
AcDbLine
 10
166.5754721656348
 20
245.5799699066283
 30
0.0
 11
166.5754721656338
 21
249.0548436407812
 31
0.0
  0
LINE
  5
236
330
75
100
AcDbEntity
  8
Visible (ISO)
100
AcDbLine
 10
174.075472165635
 20
194.7764165160349
 30
0.0
 11
174.075472165635
 21
183.190630078408
 31
0.0
  0
LINE
  5
237
330
75
100
AcDbEntity
  8
Visible (ISO)
100
AcDbLine
 10
174.0754721656349
 20
181.4228631254416
 30
0.0
 11
174.0754721656351
 21
183.190630078408
 31
0.0
  0
LINE
  5
238
330
75
100
AcDbEntity
  8
Visible (ISO)
100
AcDbLine
 10
174.0754721656348
 20
181.4228631254416
 30
0.0
 11
174.0754721656339
 21
177.9479893912887
 31
0.0
  0
LINE
  5
239
330
75
100
AcDbEntity
  8
Visible (ISO)
100
AcDbLine
 10
174.0754721656339
 20
177.9479893912887
 30
0.0
 11
174.0754721656338
 21
177.2408826101021
 31
0.0
  0
LINE
  5
23A
330
75
100
AcDbEntity
  8
Visible (ISO)
100
AcDbLine
 10
166.5754721656338
 20
177.9479893912887
 30
0.0
 11
166.5754721656338
 21
177.2408826101022
 31
0.0
  0
LINE
  5
23B
330
75
100
AcDbEntity
  8
Visible (ISO)
100
AcDbLine
 10
174.0754721656348
 20
245.5799699066283
 30
0.0
 11
174.0754721656339
 21
249.0548436407812
 31
0.0
  0
LINE
  5
23C
330
75
100
AcDbEntity
  8
Visible (ISO)
100
AcDbLine
 10
174.0754721656349
 20
245.5799699066283
 30
0.0
 11
174.0754721656351
 21
243.8122029536619
 31
0.0
  0
LINE
  5
23D
330
75
100
AcDbEntity
  8
Visible (ISO)
100
AcDbLine
 10
174.075472165635
 20
232.226416516035
 30
0.0
 11
174.075472165635
 21
243.8122029536619
 31
0.0
  0
LINE
  5
23E
330
75
100
AcDbEntity
  8
Visible (ISO)
100
AcDbLine
 10
166.5754721656348
 20
181.4228631254416
 30
0.0
 11
166.5754721656338
 21
177.9479893912887
 31
0.0
  0
LINE
  5
23F
330
75
100
AcDbEntity
  8
Visible (ISO)
100
AcDbLine
 10
166.5754721656349
 20
181.4228631254416
 30
0.0
 11
166.5754721656351
 21
183.190630078408
 31
0.0
  0
LINE
  5
240
330
75
100
AcDbEntity
  8
Visible (ISO)
100
AcDbLine
 10
166.575472165635
 20
194.7764165160349
 30
0.0
 11
166.575472165635
 21
183.190630078408
 31
0.0
  0
LINE
  5
241
330
75
100
AcDbEntity
  8
Visible (ISO)
100
AcDbLine
 10
215.0754721656338
 20
249.0548436407812
 30
0.0
 11
215.0754721656338
 21
249.7619504219677
 31
0.0
  0
LINE
  5
242
330
75
100
AcDbEntity
  8
Visible (ISO)
100
AcDbLine
 10
215.0754721656351
 20
232.226416516035
 30
0.0
 11
215.0754721656351
 21
243.8122029536619
 31
0.0
  0
LINE
  5
243
330
75
100
AcDbEntity
  8
Visible (ISO)
100
AcDbLine
 10
215.0754721656349
 20
245.5799699066283
 30
0.0
 11
215.0754721656351
 21
243.8122029536619
 31
0.0
  0
LINE
  5
244
330
75
100
AcDbEntity
  8
Visible (ISO)
100
AcDbLine
 10
215.0754721656349
 20
245.5799699066283
 30
0.0
 11
215.0754721656339
 21
249.0548436407812
 31
0.0
  0
LINE
  5
245
330
75
100
AcDbEntity
  8
Visible (ISO)
100
AcDbLine
 10
215.0754721656349
 20
181.4228631254416
 30
0.0
 11
215.0754721656339
 21
177.9479893912887
 31
0.0
  0
LINE
  5
246
330
75
100
AcDbEntity
  8
Visible (ISO)
100
AcDbLine
 10
215.0754721656349
 20
181.4228631254416
 30
0.0
 11
215.0754721656351
 21
183.190630078408
 31
0.0
  0
LINE
  5
247
330
75
100
AcDbEntity
  8
Visible (ISO)
100
AcDbLine
 10
215.0754721656351
 20
194.7764165160349
 30
0.0
 11
215.0754721656351
 21
183.190630078408
 31
0.0
  0
LINE
  5
248
330
75
100
AcDbEntity
  8
Visible (ISO)
100
AcDbLine
 10
222.5754721656351
 20
194.7764165160349
 30
0.0
 11
222.5754721656351
 21
183.190630078408
 31
0.0
  0
LINE
  5
249
330
75
100
AcDbEntity
  8
Visible (ISO)
100
AcDbLine
 10
222.5754721656349
 20
181.4228631254416
 30
0.0
 11
222.5754721656351
 21
183.190630078408
 31
0.0
  0
LINE
  5
24A
330
75
100
AcDbEntity
  8
Visible (ISO)
100
AcDbLine
 10
222.5754721656349
 20
181.4228631254416
 30
0.0
 11
222.5754721656339
 21
177.9479893912887
 31
0.0
  0
LINE
  5
24B
330
75
100
AcDbEntity
  8
Visible (ISO)
100
AcDbLine
 10
222.5754721656351
 20
232.226416516035
 30
0.0
 11
215.0754721656351
 21
232.226416516035
 31
0.0
  0
LINE
  5
24C
330
75
100
AcDbEntity
  8
Visible (ISO)
100
AcDbLine
 10
174.075472165635
 20
232.226416516035
 30
0.0
 11
166.575472165635
 21
232.226416516035
 31
0.0
  0
LINE
  5
24D
330
75
100
AcDbEntity
  8
Visible (ISO)
100
AcDbLine
 10
174.075472165635
 20
194.7764165160349
 30
0.0
 11
166.575472165635
 21
194.7764165160349
 31
0.0
  0
LINE
  5
24E
330
75
100
AcDbEntity
  8
Visible (ISO)
100
AcDbLine
 10
222.5754721656351
 20
194.7764165160349
 30
0.0
 11
215.0754721656351
 21
194.7764165160349
 31
0.0
  0
LINE
  5
24F
330
75
100
AcDbEntity
  8
Hidden (ISO)
100
AcDbLine
 10
278.8924116627587
 20
337.7278129421754
 30
0.0
 11
278.8924116627587
 21
334.4278129421754
 31
0.0
  0
LINE
  5
250
330
75
100
AcDbEntity
  8
Hidden (ISO)
100
AcDbLine
 10
278.8924116627588
 20
386.2278129421754
 30
0.0
 11
278.8924116627588
 21
382.9278129421754
 31
0.0
  0
LINE
  5
251
330
75
100
AcDbEntity
  8
Hidden (ISO)
100
AcDbLine
 10
278.8924116627587
 20
334.4278129421754
 30
0.0
 11
277.1538951820453
 21
334.4278129421754
 31
0.0
  0
LINE
  5
252
330
75
100
AcDbEntity
  8
Hidden (ISO)
100
AcDbLine
 10
278.8924116627587
 20
337.7278129421754
 30
0.0
 11
277.1538951820453
 21
337.7278129421754
 31
0.0
  0
LINE
  5
253
330
75
100
AcDbEntity
  8
Hidden (ISO)
100
AcDbLine
 10
278.8924116627588
 20
382.9278129421754
 30
0.0
 11
277.1538951820454
 21
382.9278129421754
 31
0.0
  0
LINE
  5
254
330
75
100
AcDbEntity
  8
Hidden (ISO)
100
AcDbLine
 10
278.8924116627588
 20
386.2278129421754
 30
0.0
 11
277.1538951820454
 21
386.2278129421754
 31
0.0
  0
LINE
  5
255
330
75
100
AcDbEntity
  8
Hidden (ISO)
100
AcDbLine
 10
277.1538951820453
 20
338.3278129421754
 30
0.0
 11
277.1538951820453
 21
333.8278129421754
 31
0.0
  0
LINE
  5
256
330
75
100
AcDbEntity
  8
Hidden (ISO)
100
AcDbLine
 10
277.1538951820454
 20
386.8278129421754
 30
0.0
 11
277.1538951820454
 21
382.3278129421754
 31
0.0
  0
LINE
  5
257
330
75
100
AcDbEntity
  8
Hidden (ISO)
100
AcDbLine
 10
313.0538951820453
 20
326.8278129421767
 30
0.0
 11
313.0538951820453
 21
325.3278129421767
 31
0.0
  0
LINE
  5
258
330
75
100
AcDbEntity
  8
Hidden (ISO)
100
AcDbLine
 10
334.8538951820454
 20
326.8278129421767
 30
0.0
 11
334.8538951820454
 21
325.3278129421768
 31
0.0
  0
LINE
  5
259
330
75
100
AcDbEntity
  8
Hidden (ISO)
100
AcDbLine
 10
326.8538951820453
 20
326.8278129421767
 30
0.0
 11
326.8538951820453
 21
325.3278129421768
 31
0.0
  0
LINE
  5
25A
330
75
100
AcDbEntity
  8
Hidden (ISO)
100
AcDbLine
 10
306.6538951820453
 20
326.8278129421722
 30
0.0
 11
306.6538951820453
 21
325.3278129421722
 31
0.0
  0
LINE
  5
25B
330
75
100
AcDbEntity
  8
Hidden (ISO)
100
AcDbLine
 10
311.0538951820453
 20
326.8278129421722
 30
0.0
 11
311.0538951820453
 21
325.3278129421722
 31
0.0
  0
LINE
  5
25C
330
75
100
AcDbEntity
  8
Hidden (ISO)
100
AcDbLine
 10
294.8538951820453
 20
326.8278129421767
 30
0.0
 11
294.8538951820453
 21
325.3278129421768
 31
0.0
  0
LINE
  5
25D
330
75
100
AcDbEntity
  8
Hidden (ISO)
100
AcDbLine
 10
286.8538951820454
 20
326.8278129421767
 30
0.0
 11
286.8538951820454
 21
325.3278129421768
 31
0.0
  0
LINE
  5
25E
330
75
100
AcDbEntity
  8
Hidden (ISO)
100
AcDbLine
 10
304.6538951820453
 20
326.8278129421767
 30
0.0
 11
304.6538951820453
 21
325.3278129421767
 31
0.0
  0
LINE
  5
25F
330
75
100
AcDbEntity
  8
Hidden (ISO)
100
AcDbLine
 10
275.3538951820453
 20
332.3278129421709
 30
0.0
 11
273.8538951820453
 21
332.3278129421709
 31
0.0
  0
LINE
  5
260
330
75
100
AcDbEntity
  8
Hidden (ISO)
100
AcDbLine
 10
275.3538951820453
 20
330.3278129421709
 30
0.0
 11
273.8538951820453
 21
330.3278129421709
 31
0.0
  0
LINE
  5
261
330
75
100
AcDbEntity
  8
Hidden (ISO)
100
AcDbLine
 10
275.3538951820452
 20
380.8278129421709
 30
0.0
 11
273.8538951820451
 21
380.8278129421709
 31
0.0
  0
LINE
  5
262
330
75
100
AcDbEntity
  8
Hidden (ISO)
100
AcDbLine
 10
275.3538951820452
 20
378.827812942171
 30
0.0
 11
273.8538951820451
 21
378.8278129421709
 31
0.0
  0
LINE
  5
263
330
75
100
AcDbEntity
  8
Hidden (ISO)
100
AcDbLine
 10
275.3538951820453
 20
339.8278129421709
 30
0.0
 11
273.8538951820453
 21
339.8278129421709
 31
0.0
  0
LINE
  5
264
330
75
100
AcDbEntity
  8
Hidden (ISO)
100
AcDbLine
 10
275.3538951820452
 20
341.8278129421711
 30
0.0
 11
273.8538951820453
 21
341.8278129421709
 31
0.0
  0
LINE
  5
265
330
75
100
AcDbEntity
  8
Hidden (ISO)
100
AcDbLine
 10
278.3538951820453
 20
380.8278129421736
 30
0.0
 11
278.3538951820453
 21
388.3278129421735
 31
0.0
  0
LINE
  5
266
330
75
100
AcDbEntity
  8
Hidden (ISO)
100
AcDbLine
 10
278.3538951820453
 20
332.3278129421737
 30
0.0
 11
278.3538951820453
 21
339.8278129421736
 31
0.0
  0
LINE
  5
267
330
75
100
AcDbEntity
  8
Hidden (ISO)
100
AcDbLine
 10
278.3538951820453
 20
333.8278129421754
 30
0.0
 11
277.1538951820454
 21
333.8278129421754
 31
0.0
  0
LINE
  5
268
330
75
100
AcDbEntity
  8
Hidden (ISO)
100
AcDbLine
 10
278.3538951820453
 20
338.3278129421753
 30
0.0
 11
277.1538951820453
 21
338.3278129421753
 31
0.0
  0
LINE
  5
269
330
75
100
AcDbEntity
  8
Hidden (ISO)
100
AcDbLine
 10
278.3538951820453
 20
382.3278129421753
 30
0.0
 11
277.1538951820454
 21
382.3278129421753
 31
0.0
  0
LINE
  5
26A
330
75
100
AcDbEntity
  8
Hidden (ISO)
100
AcDbLine
 10
278.3538951820453
 20
386.8278129421753
 30
0.0
 11
277.1538951820454
 21
386.8278129421753
 31
0.0
  0
LINE
  5
26B
330
75
100
AcDbEntity
  8
Hidden (ISO)
100
AcDbLine
 10
311.1038951820453
 20
326.8278129421811
 30
0.0
 11
311.1038951820453
 21
325.3278129421812
 31
0.0
  0
LINE
  5
26C
330
75
100
AcDbEntity
  8
Hidden (ISO)
100
AcDbLine
 10
306.6038951820453
 20
326.8278129421811
 30
0.0
 11
306.6038951820453
 21
325.3278129421812
 31
0.0
  0
LINE
  5
26D
330
75
100
AcDbEntity
  8
Hidden (ISO)
100
AcDbLine
 10
292.2038951820454
 20
326.8278129421753
 30
0.0
 11
292.2038951820454
 21
325.3278129421754
 31
0.0
  0
LINE
  5
26E
330
75
100
AcDbEntity
  8
Hidden (ISO)
100
AcDbLine
 10
289.5038951820454
 20
326.8278129421753
 30
0.0
 11
289.5038951820454
 21
325.3278129421754
 31
0.0
  0
LINE
  5
26F
330
75
100
AcDbEntity
  8
Hidden (ISO)
100
AcDbLine
 10
332.2038951820454
 20
326.8278129421753
 30
0.0
 11
332.2038951820454
 21
325.3278129421754
 31
0.0
  0
LINE
  5
270
330
75
100
AcDbEntity
  8
Hidden (ISO)
100
AcDbLine
 10
329.5038951820453
 20
326.8278129421753
 30
0.0
 11
329.5038951820453
 21
325.3278129421754
 31
0.0
  0
LINE
  5
271
330
75
100
AcDbEntity
  8
Hidden (ISO)
100
AcDbLine
 10
333.4538951820454
 20
326.8278129421625
 30
0.0
 11
333.4538951820454
 21
325.3278129421625
 31
0.0
  0
LINE
  5
272
330
75
100
AcDbEntity
  8
Hidden (ISO)
100
AcDbLine
 10
328.2538951820453
 20
326.8278129421625
 30
0.0
 11
328.2538951820453
 21
325.3278129421625
 31
0.0
  0
LINE
  5
273
330
75
100
AcDbEntity
  8
Hidden (ISO)
100
AcDbLine
 10
290.4538951820453
 20
326.8278129421625
 30
0.0
 11
290.4538951820453
 21
325.3278129421626
 31
0.0
  0
LINE
  5
274
330
75
100
AcDbEntity
  8
Hidden (ISO)
100
AcDbLine
 10
285.2538951820453
 20
326.8278129421625
 30
0.0
 11
285.2538951820453
 21
325.3278129421626
 31
0.0
  0
ARC
  5
275
330
75
100
AcDbEntity
  8
Hidden (ISO)
100
AcDbCircle
 10
278.3538951820453
 20
387.6278129421754
 30
0.0
 40
1.5
100
AcDbArc
 50
291.0394697813168
 51
0.0
  0
ARC
  5
276
330
75
100
AcDbEntity
  8
Hidden (ISO)
100
AcDbCircle
 10
278.3538951820453
 20
381.5278129421754
 30
0.0
 40
1.5
100
AcDbArc
 50
0.0
 51
68.9605302186832
  0
ARC
  5
277
330
75
100
AcDbEntity
  8
Hidden (ISO)
100
AcDbCircle
 10
278.3538951820453
 20
339.1278129421754
 30
0.0
 40
1.5
100
AcDbArc
 50
291.0394697813168
 51
0.0
  0
ARC
  5
278
330
75
100
AcDbEntity
  8
Hidden (ISO)
100
AcDbCircle
 10
278.3538951820453
 20
333.0278129421754
 30
0.0
 40
1.5
100
AcDbArc
 50
0.0
 51
68.96053021868448
  0
LINE
  5
279
330
75
100
AcDbEntity
  8
Visible (ISO)
100
AcDbLine
 10
322.8538951820453
 20
326.8278129421616
 30
0.0
 11
324.8538951820453
 21
326.8278129421611
 31
0.0
  0
LINE
  5
27A
330
75
100
AcDbEntity
  8
Visible (ISO)
100
AcDbLine
 10
324.8538951820453
 20
326.8278129421611
 30
0.0
 11
336.8538951820454
 21
326.8278129421611
 31
0.0
  0
LINE
  5
27B
330
75
100
AcDbEntity
  8
Visible (ISO)
100
AcDbLine
 10
336.8538951820454
 20
326.8278129421611
 30
0.0
 11
338.8538951820454
 21
326.8278129421616
 31
0.0
  0
LINE
  5
27C
330
75
100
AcDbEntity
  8
Visible (ISO)
100
AcDbLine
 10
276.3538951820454
 20
326.8278129421655
 30
0.0
 11
279.8538951820453
 21
326.8278129421655
 31
0.0
  0
LINE
  5
27D
330
75
100
AcDbEntity
  8
Visible (ISO)
100
AcDbLine
 10
279.8538951820453
 20
326.8278129421616
 30
0.0
 11
281.8538951820452
 21
326.8278129421611
 31
0.0
  0
LINE
  5
27E
330
75
100
AcDbEntity
  8
Visible (ISO)
100
AcDbLine
 10
281.8538951820452
 20
326.8278129421611
 30
0.0
 11
293.8538951820453
 21
326.8278129421611
 31
0.0
  0
LINE
  5
27F
330
75
100
AcDbEntity
  8
Visible (ISO)
100
AcDbLine
 10
293.8538951820453
 20
326.8278129421611
 30
0.0
 11
295.8538951820453
 21
326.8278129421616
 31
0.0
  0
LINE
  5
280
330
75
100
AcDbEntity
  8
Visible (ISO)
100
AcDbLine
 10
295.8538951820453
 20
326.8278129421641
 30
0.0
 11
322.8538951820453
 21
326.8278129421641
 31
0.0
  0
LINE
  5
281
330
75
100
AcDbEntity
  8
Visible (ISO)
100
AcDbLine
 10
324.8538951820453
 20
325.327812942161
 30
0.0
 11
336.8538951820454
 21
325.327812942161
 31
0.0
  0
LINE
  5
282
330
75
100
AcDbEntity
  8
Visible (ISO)
100
AcDbLine
 10
324.8538951820453
 20
325.327812942161
 30
0.0
 11
322.8538951820453
 21
325.3278129421616
 31
0.0
  0
LINE
  5
283
330
75
100
AcDbEntity
  8
Visible (ISO)
100
AcDbLine
 10
295.8538951820453
 20
325.3278129421641
 30
0.0
 11
322.8538951820453
 21
325.3278129421641
 31
0.0
  0
LINE
  5
284
330
75
100
AcDbEntity
  8
Visible (ISO)
100
AcDbLine
 10
295.8538951820453
 20
325.3278129421616
 30
0.0
 11
293.8538951820453
 21
325.327812942161
 31
0.0
  0
LINE
  5
285
330
75
100
AcDbEntity
  8
Visible (ISO)
100
AcDbLine
 10
281.8538951820453
 20
325.327812942161
 30
0.0
 11
293.8538951820453
 21
325.327812942161
 31
0.0
  0
LINE
  5
286
330
75
100
AcDbEntity
  8
Visible (ISO)
100
AcDbLine
 10
281.8538951820453
 20
325.327812942161
 30
0.0
 11
279.8538951820453
 21
325.3278129421616
 31
0.0
  0
LINE
  5
287
330
75
100
AcDbEntity
  8
Visible (ISO)
100
AcDbLine
 10
276.3538951820454
 20
325.3278129421655
 30
0.0
 11
279.8538951820453
 21
325.3278129421655
 31
0.0
  0
LINE
  5
288
330
75
100
AcDbEntity
  8
Visible (ISO)
100
AcDbLine
 10
338.8538951820454
 20
325.3278129421616
 30
0.0
 11
336.8538951820454
 21
325.327812942161
 31
0.0
  0
LINE
  5
289
330
75
100
AcDbEntity
  8
Visible (ISO)
100
AcDbLine
 10
295.8538951820453
 20
326.8278129421616
 30
0.0
 11
295.8538951820453
 21
325.3278129421616
 31
0.0
  0
LINE
  5
28A
330
75
100
AcDbEntity
  8
Visible (ISO)
100
AcDbLine
 10
324.8538951820453
 20
326.8278129421611
 30
0.0
 11
324.8538951820453
 21
325.327812942161
 31
0.0
  0
LINE
  5
28B
330
75
100
AcDbEntity
  8
Visible (ISO)
100
AcDbLine
 10
336.8538951820454
 20
325.327812942161
 30
0.0
 11
336.8538951820454
 21
326.8278129421611
 31
0.0
  0
LINE
  5
28C
330
75
100
AcDbEntity
  8
Visible (ISO)
100
AcDbLine
 10
293.8538951820453
 20
325.327812942161
 30
0.0
 11
293.8538951820453
 21
326.8278129421611
 31
0.0
  0
LINE
  5
28D
330
75
100
AcDbEntity
  8
Visible (ISO)
100
AcDbLine
 10
281.8538951820452
 20
326.8278129421611
 30
0.0
 11
281.8538951820453
 21
325.327812942161
 31
0.0
  0
LINE
  5
28E
330
75
100
AcDbEntity
  8
Visible (ISO)
100
AcDbLine
 10
338.8538951820454
 20
326.8278129421616
 30
0.0
 11
338.8538951820454
 21
325.3278129421616
 31
0.0
  0
LINE
  5
28F
330
75
100
AcDbEntity
  8
Visible (ISO)
100
AcDbLine
 10
279.8538951820453
 20
325.3278129421616
 30
0.0
 11
279.8538951820453
 21
326.8278129421616
 31
0.0
  0
LINE
  5
290
330
75
100
AcDbEntity
  8
Visible (ISO)
100
AcDbLine
 10
322.8538951820453
 20
325.3278129421616
 30
0.0
 11
322.8538951820453
 21
326.8278129421616
 31
0.0
  0
ARC
  5
291
330
75
100
AcDbEntity
  8
Visible (ISO)
100
AcDbCircle
 10
276.3538951820454
 20
327.8278129421654
 30
0.0
 40
1.0
100
AcDbArc
 50
180.0
 51
270.0
  0
ARC
  5
292
330
75
100
AcDbEntity
  8
Visible (ISO)
100
AcDbCircle
 10
276.3538951820454
 20
327.8278129421654
 30
0.0
 40
2.499999999999998
100
AcDbArc
 50
180.0
 51
270.0
  0
LINE
  5
293
330
75
100
AcDbEntity
  8
Visible (ISO)
100
AcDbLine
 10
275.3538951820451
 20
388.3278129421654
 30
0.0
 11
275.3538951820453
 21
327.8278129421654
 31
0.0
  0
LINE
  5
294
330
75
100
AcDbEntity
  8
Visible (ISO)
100
AcDbLine
 10
273.8538951820451
 20
388.3278129421654
 30
0.0
 11
273.8538951820451
 21
327.8278129421654
 31
0.0
  0
LINE
  5
295
330
75
100
AcDbEntity
  8
Visible (ISO)
100
AcDbLine
 10
273.8538951820451
 20
388.3278129421654
 30
0.0
 11
275.3538951820451
 21
388.3278129421654
 31
0.0
  0
LINE
  5
296
330
75
100
AcDbEntity
  8
Visible (ISO)
100
AcDbLine
 10
275.6467884008587
 20
339.827812942172
 30
0.0
 11
275.3538951820452
 21
339.8278129421718
 31
0.0
  0
LINE
  5
297
330
75
100
AcDbEntity
  8
Visible (ISO)
100
AcDbLine
 10
275.6467884008588
 20
332.3278129421721
 30
0.0
 11
275.3538951820453
 21
332.3278129421718
 31
0.0
  0
LINE
  5
298
330
75
100
AcDbEntity
  8
Visible (ISO)
100
AcDbLine
 10
279.1216621350117
 20
380.8278129421731
 30
0.0
 11
279.8538951820453
 21
380.8278129421735
 31
0.0
  0
LINE
  5
299
330
75
100
AcDbEntity
  8
Visible (ISO)
100
AcDbLine
 10
279.1216621350117
 20
380.8278129421731
 30
0.0
 11
275.6467884008588
 21
380.827812942172
 31
0.0
  0
LINE
  5
29A
330
75
100
AcDbEntity
  8
Visible (ISO)
100
AcDbLine
 10
275.6467884008588
 20
380.827812942172
 30
0.0
 11
275.3538951820453
 21
380.8278129421718
 31
0.0
  0
LINE
  5
29B
330
75
100
AcDbEntity
  8
Visible (ISO)
100
AcDbLine
 10
275.6467884008588
 20
388.3278129421721
 30
0.0
 11
275.3538951820453
 21
388.3278129421718
 31
0.0
  0
LINE
  5
29C
330
75
100
AcDbEntity
  8
Visible (ISO)
100
AcDbLine
 10
279.1216621350117
 20
388.3278129421731
 30
0.0
 11
275.6467884008588
 21
388.327812942172
 31
0.0
  0
LINE
  5
29D
330
75
100
AcDbEntity
  8
Visible (ISO)
100
AcDbLine
 10
279.1216621350117
 20
388.3278129421731
 30
0.0
 11
279.8538951820453
 21
388.3278129421735
 31
0.0
  0
LINE
  5
29E
330
75
100
AcDbEntity
  8
Visible (ISO)
100
AcDbLine
 10
279.1216621350117
 20
339.8278129421731
 30
0.0
 11
275.6467884008587
 21
339.827812942172
 31
0.0
  0
LINE
  5
29F
330
75
100
AcDbEntity
  8
Visible (ISO)
100
AcDbLine
 10
279.1216621350117
 20
339.8278129421731
 30
0.0
 11
279.8538951820453
 21
339.8278129421735
 31
0.0
  0
LINE
  5
2A0
330
75
100
AcDbEntity
  8
Visible (ISO)
100
AcDbLine
 10
279.1216621350117
 20
332.3278129421731
 30
0.0
 11
279.8538951820453
 21
332.3278129421735
 31
0.0
  0
LINE
  5
2A1
330
75
100
AcDbEntity
  8
Visible (ISO)
100
AcDbLine
 10
279.1216621350117
 20
332.3278129421731
 30
0.0
 11
275.6467884008588
 21
332.327812942172
 31
0.0
  0
LINE
  5
2A2
330
75
100
AcDbEntity
  8
Visible (ISO)
100
AcDbLine
 10
279.8538951820453
 20
380.8278129421736
 30
0.0
 11
279.8538951820453
 21
388.3278129421737
 31
0.0
  0
LINE
  5
2A3
330
75
100
AcDbEntity
  8
Visible (ISO)
100
AcDbLine
 10
279.8538951820453
 20
332.3278129421737
 30
0.0
 11
279.8538951820453
 21
339.8278129421736
 31
0.0
  0
LINE
  5
2A4
330
75
100
AcDbEntity
  8
Hidden (ISO)
100
AcDbLine
 10
278.8924116627588
 20
41.04050632653235
 30
0.0
 11
278.8924116627588
 21
37.74050632653235
 31
0.0
  0
LINE
  5
2A5
330
75
100
AcDbEntity
  8
Hidden (ISO)
100
AcDbLine
 10
278.8924116627587
 20
89.54050632653238
 30
0.0
 11
278.8924116627587
 21
86.24050632653236
 31
0.0
  0
LINE
  5
2A6
330
75
100
AcDbEntity
  8
Hidden (ISO)
100
AcDbLine
 10
278.8924116627588
 20
37.74050632653237
 30
0.0
 11
277.1538951820454
 21
37.74050632653237
 31
0.0
  0
LINE
  5
2A7
330
75
100
AcDbEntity
  8
Hidden (ISO)
100
AcDbLine
 10
278.8924116627588
 20
41.04050632653237
 30
0.0
 11
277.1538951820454
 21
41.04050632653237
 31
0.0
  0
LINE
  5
2A8
330
75
100
AcDbEntity
  8
Hidden (ISO)
100
AcDbLine
 10
278.8924116627587
 20
86.24050632653238
 30
0.0
 11
277.1538951820453
 21
86.24050632653238
 31
0.0
  0
LINE
  5
2A9
330
75
100
AcDbEntity
  8
Hidden (ISO)
100
AcDbLine
 10
278.8924116627587
 20
89.54050632653238
 30
0.0
 11
277.1538951820453
 21
89.54050632653238
 31
0.0
  0
LINE
  5
2AA
330
75
100
AcDbEntity
  8
Hidden (ISO)
100
AcDbLine
 10
277.1538951820453
 20
85.64050632653238
 30
0.0
 11
277.1538951820453
 21
90.14050632653237
 31
0.0
  0
LINE
  5
2AB
330
75
100
AcDbEntity
  8
Hidden (ISO)
100
AcDbLine
 10
277.1538951820454
 20
37.14050632653237
 30
0.0
 11
277.1538951820454
 21
41.64050632653237
 31
0.0
  0
LINE
  5
2AC
330
75
100
AcDbEntity
  8
Hidden (ISO)
100
AcDbLine
 10
311.0538951820453
 20
97.1405063265386
 30
0.0
 11
311.0538951820453
 21
98.6405063265386
 31
0.0
  0
LINE
  5
2AD
330
75
100
AcDbEntity
  8
Hidden (ISO)
100
AcDbLine
 10
313.0538951820453
 20
97.1405063265408
 30
0.0
 11
313.0538951820453
 21
98.64050632654082
 31
0.0
  0
LINE
  5
2AE
330
75
100
AcDbEntity
  8
Hidden (ISO)
100
AcDbLine
 10
304.6538951820453
 20
97.1405063265408
 30
0.0
 11
304.6538951820453
 21
98.64050632654082
 31
0.0
  0
LINE
  5
2AF
330
75
100
AcDbEntity
  8
Hidden (ISO)
100
AcDbLine
 10
294.8538951820453
 20
97.14050632651993
 30
0.0
 11
294.8538951820453
 21
98.64050632651995
 31
0.0
  0
LINE
  5
2B0
330
75
100
AcDbEntity
  8
Hidden (ISO)
100
AcDbLine
 10
306.6538951820453
 20
97.1405063265386
 30
0.0
 11
306.6538951820453
 21
98.6405063265386
 31
0.0
  0
LINE
  5
2B1
330
75
100
AcDbEntity
  8
Hidden (ISO)
100
AcDbLine
 10
326.8538951820453
 20
97.14050632651993
 30
0.0
 11
326.8538951820453
 21
98.64050632651995
 31
0.0
  0
LINE
  5
2B2
330
75
100
AcDbEntity
  8
Hidden (ISO)
100
AcDbLine
 10
334.8538951820454
 20
97.14050632651993
 30
0.0
 11
334.8538951820454
 21
98.64050632651995
 31
0.0
  0
LINE
  5
2B3
330
75
100
AcDbEntity
  8
Hidden (ISO)
100
AcDbLine
 10
286.8538951820454
 20
97.14050632651993
 30
0.0
 11
286.8538951820454
 21
98.64050632651995
 31
0.0
  0
LINE
  5
2B4
330
75
100
AcDbEntity
  8
Hidden (ISO)
100
AcDbLine
 10
275.3538951820452
 20
43.14050632653682
 30
0.0
 11
273.8538951820451
 21
43.14050632653682
 31
0.0
  0
LINE
  5
2B5
330
75
100
AcDbEntity
  8
Hidden (ISO)
100
AcDbLine
 10
275.3538951820452
 20
45.14050632653679
 30
0.0
 11
273.8538951820451
 21
45.14050632653682
 31
0.0
  0
LINE
  5
2B6
330
75
100
AcDbEntity
  8
Hidden (ISO)
100
AcDbLine
 10
275.3538951820453
 20
91.64050632653681
 30
0.0
 11
273.8538951820453
 21
91.64050632653681
 31
0.0
  0
LINE
  5
2B7
330
75
100
AcDbEntity
  8
Hidden (ISO)
100
AcDbLine
 10
275.3538951820453
 20
84.14050632653681
 30
0.0
 11
273.8538951820453
 21
84.14050632653681
 31
0.0
  0
LINE
  5
2B8
330
75
100
AcDbEntity
  8
Hidden (ISO)
100
AcDbLine
 10
275.3538951820453
 20
82.1405063265368
 30
0.0
 11
273.8538951820453
 21
82.1405063265368
 31
0.0
  0
LINE
  5
2B9
330
75
100
AcDbEntity
  8
Hidden (ISO)
100
AcDbLine
 10
275.3538951820453
 20
93.64050632653681
 30
0.0
 11
273.8538951820453
 21
93.64050632653681
 31
0.0
  0
LINE
  5
2BA
330
75
100
AcDbEntity
  8
Hidden (ISO)
100
AcDbLine
 10
278.3538951820453
 20
91.64050632653415
 30
0.0
 11
278.3538951820453
 21
84.14050632653415
 31
0.0
  0
LINE
  5
2BB
330
75
100
AcDbEntity
  8
Hidden (ISO)
100
AcDbLine
 10
278.3538951820453
 20
43.14050632653414
 30
0.0
 11
278.3538951820453
 21
35.64050632653416
 31
0.0
  0
LINE
  5
2BC
330
75
100
AcDbEntity
  8
Hidden (ISO)
100
AcDbLine
 10
278.3538951820453
 20
85.64050632653239
 30
0.0
 11
277.1538951820453
 21
85.64050632653239
 31
0.0
  0
LINE
  5
2BD
330
75
100
AcDbEntity
  8
Hidden (ISO)
100
AcDbLine
 10
278.3538951820453
 20
90.14050632653239
 30
0.0
 11
277.1538951820454
 21
90.14050632653239
 31
0.0
  0
LINE
  5
2BE
330
75
100
AcDbEntity
  8
Hidden (ISO)
100
AcDbLine
 10
278.3538951820453
 20
37.1405063265324
 30
0.0
 11
277.1538951820454
 21
37.1405063265324
 31
0.0
  0
LINE
  5
2BF
330
75
100
AcDbEntity
  8
Hidden (ISO)
100
AcDbLine
 10
278.3538951820453
 20
41.6405063265324
 30
0.0
 11
277.1538951820454
 21
41.6405063265324
 31
0.0
  0
LINE
  5
2C0
330
75
100
AcDbEntity
  8
Hidden (ISO)
100
AcDbLine
 10
306.6038951820453
 20
97.14050632652377
 30
0.0
 11
306.6038951820453
 21
98.64050632652379
 31
0.0
  0
LINE
  5
2C1
330
75
100
AcDbEntity
  8
Hidden (ISO)
100
AcDbLine
 10
311.1038951820453
 20
97.14050632652377
 30
0.0
 11
311.1038951820453
 21
98.64050632652379
 31
0.0
  0
LINE
  5
2C2
330
75
100
AcDbEntity
  8
Hidden (ISO)
100
AcDbLine
 10
289.5038951820454
 20
97.1405063265324
 30
0.0
 11
289.5038951820454
 21
98.64050632653238
 31
0.0
  0
LINE
  5
2C3
330
75
100
AcDbEntity
  8
Hidden (ISO)
100
AcDbLine
 10
292.2038951820454
 20
97.1405063265324
 30
0.0
 11
292.2038951820454
 21
98.64050632653238
 31
0.0
  0
LINE
  5
2C4
330
75
100
AcDbEntity
  8
Hidden (ISO)
100
AcDbLine
 10
285.2538951820453
 20
97.14050632654517
 30
0.0
 11
285.2538951820453
 21
98.64050632654517
 31
0.0
  0
LINE
  5
2C5
330
75
100
AcDbEntity
  8
Hidden (ISO)
100
AcDbLine
 10
290.4538951820454
 20
97.14050632654517
 30
0.0
 11
290.4538951820454
 21
98.64050632654517
 31
0.0
  0
LINE
  5
2C6
330
75
100
AcDbEntity
  8
Hidden (ISO)
100
AcDbLine
 10
328.2538951820453
 20
97.14050632654517
 30
0.0
 11
328.2538951820453
 21
98.64050632654517
 31
0.0
  0
LINE
  5
2C7
330
75
100
AcDbEntity
  8
Hidden (ISO)
100
AcDbLine
 10
333.4538951820454
 20
97.14050632654517
 30
0.0
 11
333.4538951820454
 21
98.64050632654517
 31
0.0
  0
LINE
  5
2C8
330
75
100
AcDbEntity
  8
Hidden (ISO)
100
AcDbLine
 10
329.5038951820453
 20
97.1405063265324
 30
0.0
 11
329.5038951820453
 21
98.64050632653238
 31
0.0
  0
LINE
  5
2C9
330
75
100
AcDbEntity
  8
Hidden (ISO)
100
AcDbLine
 10
332.2038951820454
 20
97.1405063265324
 30
0.0
 11
332.2038951820454
 21
98.64050632653238
 31
0.0
  0
ARC
  5
2CA
330
75
100
AcDbEntity
  8
Hidden (ISO)
100
AcDbCircle
 10
278.3538951820453
 20
84.84050632653238
 30
0.0
 40
1.5
100
AcDbArc
 50
0.0
 51
68.96053021868197
  0
ARC
  5
2CB
330
75
100
AcDbEntity
  8
Hidden (ISO)
100
AcDbCircle
 10
278.3538951820453
 20
90.94050632653237
 30
0.0
 40
1.5
100
AcDbArc
 50
291.0394697813183
 51
0.0
  0
ARC
  5
2CC
330
75
100
AcDbEntity
  8
Hidden (ISO)
100
AcDbCircle
 10
278.3538951820453
 20
36.34050632653236
 30
0.0
 40
1.5
100
AcDbArc
 50
0.0
 51
68.9605302186832
  0
ARC
  5
2CD
330
75
100
AcDbEntity
  8
Hidden (ISO)
100
AcDbCircle
 10
278.3538951820453
 20
42.44050632653235
 30
0.0
 40
1.5
100
AcDbArc
 50
291.039469781317
 51
0.0
  0
LINE
  5
2CE
330
75
100
AcDbEntity
  8
Visible (ISO)
100
AcDbLine
 10
322.8538951820453
 20
98.64050632654354
 30
0.0
 11
295.8538951820453
 21
98.64050632654354
 31
0.0
  0
LINE
  5
2CF
330
75
100
AcDbEntity
  8
Visible (ISO)
100
AcDbLine
 10
322.8538951820453
 20
97.14050632654355
 30
0.0
 11
295.8538951820453
 21
97.14050632654355
 31
0.0
  0
LINE
  5
2D0
330
75
100
AcDbEntity
  8
Visible (ISO)
100
AcDbLine
 10
338.8538951820454
 20
97.14050632654606
 30
0.0
 11
336.8538951820454
 21
97.14050632654664
 31
0.0
  0
LINE
  5
2D1
330
75
100
AcDbEntity
  8
Visible (ISO)
100
AcDbLine
 10
336.8538951820454
 20
97.14050632654664
 30
0.0
 11
324.8538951820453
 21
97.14050632654664
 31
0.0
  0
LINE
  5
2D2
330
75
100
AcDbEntity
  8
Visible (ISO)
100
AcDbLine
 10
324.8538951820453
 20
97.14050632654664
 30
0.0
 11
322.8538951820453
 21
97.14050632654606
 31
0.0
  0
LINE
  5
2D3
330
75
100
AcDbEntity
  8
Visible (ISO)
100
AcDbLine
 10
295.8538951820453
 20
97.14050632654606
 30
0.0
 11
293.8538951820453
 21
97.14050632654664
 31
0.0
  0
LINE
  5
2D4
330
75
100
AcDbEntity
  8
Visible (ISO)
100
AcDbLine
 10
293.8538951820453
 20
97.14050632654664
 30
0.0
 11
281.8538951820453
 21
97.14050632654664
 31
0.0
  0
LINE
  5
2D5
330
75
100
AcDbEntity
  8
Visible (ISO)
100
AcDbLine
 10
281.8538951820453
 20
97.14050632654664
 30
0.0
 11
279.8538951820453
 21
97.14050632654606
 31
0.0
  0
LINE
  5
2D6
330
75
100
AcDbEntity
  8
Visible (ISO)
100
AcDbLine
 10
279.8538951820453
 20
97.1405063265422
 30
0.0
 11
276.3538951820454
 21
97.1405063265422
 31
0.0
  0
LINE
  5
2D7
330
75
100
AcDbEntity
  8
Visible (ISO)
100
AcDbLine
 10
322.8538951820453
 20
97.14050632654606
 30
0.0
 11
322.8538951820453
 21
98.64050632654604
 31
0.0
  0
LINE
  5
2D8
330
75
100
AcDbEntity
  8
Visible (ISO)
100
AcDbLine
 10
279.8538951820453
 20
98.64050632654219
 30
0.0
 11
276.3538951820454
 21
98.64050632654219
 31
0.0
  0
LINE
  5
2D9
330
75
100
AcDbEntity
  8
Visible (ISO)
100
AcDbLine
 10
279.8538951820453
 20
98.64050632654604
 30
0.0
 11
281.8538951820453
 21
98.64050632654667
 31
0.0
  0
LINE
  5
2DA
330
75
100
AcDbEntity
  8
Visible (ISO)
100
AcDbLine
 10
293.8538951820453
 20
98.64050632654667
 30
0.0
 11
281.8538951820453
 21
98.64050632654667
 31
0.0
  0
LINE
  5
2DB
330
75
100
AcDbEntity
  8
Visible (ISO)
100
AcDbLine
 10
293.8538951820453
 20
98.64050632654667
 30
0.0
 11
295.8538951820453
 21
98.64050632654604
 31
0.0
  0
LINE
  5
2DC
330
75
100
AcDbEntity
  8
Visible (ISO)
100
AcDbLine
 10
322.8538951820453
 20
98.64050632654604
 30
0.0
 11
324.8538951820453
 21
98.64050632654667
 31
0.0
  0
LINE
  5
2DD
330
75
100
AcDbEntity
  8
Visible (ISO)
100
AcDbLine
 10
336.8538951820454
 20
98.64050632654667
 30
0.0
 11
324.8538951820453
 21
98.64050632654667
 31
0.0
  0
LINE
  5
2DE
330
75
100
AcDbEntity
  8
Visible (ISO)
100
AcDbLine
 10
336.8538951820454
 20
98.64050632654667
 30
0.0
 11
338.8538951820454
 21
98.64050632654604
 31
0.0
  0
LINE
  5
2DF
330
75
100
AcDbEntity
  8
Visible (ISO)
100
AcDbLine
 10
295.8538951820453
 20
98.64050632654604
 30
0.0
 11
295.8538951820453
 21
97.14050632654606
 31
0.0
  0
LINE
  5
2E0
330
75
100
AcDbEntity
  8
Visible (ISO)
100
AcDbLine
 10
293.8538951820453
 20
97.14050632654664
 30
0.0
 11
293.8538951820453
 21
98.64050632654667
 31
0.0
  0
LINE
  5
2E1
330
75
100
AcDbEntity
  8
Visible (ISO)
100
AcDbLine
 10
281.8538951820453
 20
98.64050632654667
 30
0.0
 11
281.8538951820453
 21
97.14050632654664
 31
0.0
  0
LINE
  5
2E2
330
75
100
AcDbEntity
  8
Visible (ISO)
100
AcDbLine
 10
338.8538951820454
 20
98.64050632654604
 30
0.0
 11
338.8538951820454
 21
97.14050632654606
 31
0.0
  0
LINE
  5
2E3
330
75
100
AcDbEntity
  8
Visible (ISO)
100
AcDbLine
 10
279.8538951820453
 20
97.14050632654606
 30
0.0
 11
279.8538951820453
 21
98.64050632654604
 31
0.0
  0
LINE
  5
2E4
330
75
100
AcDbEntity
  8
Visible (ISO)
100
AcDbLine
 10
324.8538951820453
 20
98.64050632654667
 30
0.0
 11
324.8538951820453
 21
97.14050632654664
 31
0.0
  0
LINE
  5
2E5
330
75
100
AcDbEntity
  8
Visible (ISO)
100
AcDbLine
 10
336.8538951820454
 20
97.14050632654664
 30
0.0
 11
336.8538951820454
 21
98.64050632654667
 31
0.0
  0
ARC
  5
2E6
330
75
100
AcDbEntity
  8
Visible (ISO)
100
AcDbCircle
 10
276.3538951820454
 20
96.14050632654219
 30
0.0
 40
1.000000000000001
100
AcDbArc
 50
90.0
 51
180.0
  0
ARC
  5
2E7
330
75
100
AcDbEntity
  8
Visible (ISO)
100
AcDbCircle
 10
276.3538951820454
 20
96.14050632654219
 30
0.0
 40
2.499999999999999
100
AcDbArc
 50
90.0
 51
180.0
  0
LINE
  5
2E8
330
75
100
AcDbEntity
  8
Visible (ISO)
100
AcDbLine
 10
275.3538951820451
 20
35.6405063265422
 30
0.0
 11
275.3538951820453
 21
96.14050632654219
 31
0.0
  0
LINE
  5
2E9
330
75
100
AcDbEntity
  8
Visible (ISO)
100
AcDbLine
 10
273.8538951820451
 20
35.6405063265422
 30
0.0
 11
273.8538951820453
 21
96.14050632654221
 31
0.0
  0
LINE
  5
2EA
330
75
100
AcDbEntity
  8
Visible (ISO)
100
AcDbLine
 10
275.3538951820451
 20
35.6405063265422
 30
0.0
 11
273.8538951820451
 21
35.6405063265422
 31
0.0
  0
LINE
  5
2EB
330
75
100
AcDbEntity
  8
Visible (ISO)
100
AcDbLine
 10
275.6467884008588
 20
35.64050632653571
 30
0.0
 11
275.3538951820453
 21
35.64050632653592
 31
0.0
  0
LINE
  5
2EC
330
75
100
AcDbEntity
  8
Visible (ISO)
100
AcDbLine
 10
275.6467884008588
 20
43.14050632653573
 30
0.0
 11
275.3538951820453
 21
43.14050632653594
 31
0.0
  0
LINE
  5
2ED
330
75
100
AcDbEntity
  8
Visible (ISO)
100
AcDbLine
 10
275.6467884008588
 20
91.64050632653571
 30
0.0
 11
275.3538951820453
 21
91.64050632653593
 31
0.0
  0
LINE
  5
2EE
330
75
100
AcDbEntity
  8
Visible (ISO)
100
AcDbLine
 10
279.1216621350117
 20
91.64050632653468
 30
0.0
 11
275.6467884008588
 21
91.64050632653573
 31
0.0
  0
LINE
  5
2EF
330
75
100
AcDbEntity
  8
Visible (ISO)
100
AcDbLine
 10
279.1216621350117
 20
91.6405063265347
 30
0.0
 11
279.8538951820453
 21
91.64050632653417
 31
0.0
  0
LINE
  5
2F0
330
75
100
AcDbEntity
  8
Visible (ISO)
100
AcDbLine
 10
279.1216621350117
 20
35.64050632653469
 30
0.0
 11
279.8538951820453
 21
35.64050632653416
 31
0.0
  0
LINE
  5
2F1
330
75
100
AcDbEntity
  8
Visible (ISO)
100
AcDbLine
 10
279.1216621350117
 20
35.64050632653469
 30
0.0
 11
275.6467884008588
 21
35.64050632653574
 31
0.0
  0
LINE
  5
2F2
330
75
100
AcDbEntity
  8
Visible (ISO)
100
AcDbLine
 10
279.1216621350117
 20
43.14050632653466
 30
0.0
 11
275.6467884008588
 21
43.14050632653574
 31
0.0
  0
LINE
  5
2F3
330
75
100
AcDbEntity
  8
Visible (ISO)
100
AcDbLine
 10
279.1216621350117
 20
43.1405063265347
 30
0.0
 11
279.8538951820453
 21
43.14050632653418
 31
0.0
  0
LINE
  5
2F4
330
75
100
AcDbEntity
  8
Visible (ISO)
100
AcDbLine
 10
275.6467884008587
 20
84.14050632653571
 30
0.0
 11
275.3538951820452
 21
84.14050632653593
 31
0.0
  0
LINE
  5
2F5
330
75
100
AcDbEntity
  8
Visible (ISO)
100
AcDbLine
 10
279.1216621350117
 20
84.1405063265347
 30
0.0
 11
279.8538951820452
 21
84.14050632653417
 31
0.0
  0
LINE
  5
2F6
330
75
100
AcDbEntity
  8
Visible (ISO)
100
AcDbLine
 10
279.1216621350117
 20
84.14050632653468
 30
0.0
 11
275.6467884008587
 21
84.14050632653571
 31
0.0
  0
LINE
  5
2F7
330
75
100
AcDbEntity
  8
Visible (ISO)
100
AcDbLine
 10
279.8538951820453
 20
91.64050632653415
 30
0.0
 11
279.8538951820453
 21
84.14050632653415
 31
0.0
  0
LINE
  5
2F8
330
75
100
AcDbEntity
  8
Visible (ISO)
100
AcDbLine
 10
279.8538951820453
 20
43.14050632653414
 30
0.0
 11
279.8538951820453
 21
35.64050632653414
 31
0.0
  0
ELLIPSE
  5
2F9
330
75
100
AcDbEntity
  8
Visible (ISO)
100
AcDbEllipse
 10
74.28016161311683
 20
185.8902244563456
 30
0.0
 11
-0.8234031491139006
 21
1.429862669639749
 31
0.0
210
0.0
220
0.0
230
1.0
 40
0.5780931159156389
 41
2.881066455884191
 42
6.543711504885163
  0
ELLIPSE
  5
2FA
330
75
100
AcDbEntity
  8
Visible (ISO)
100
AcDbEllipse
 10
73.05084482039962
 20
185.1823079970419
 30
0.0
 11
-0.8234031491139875
 21
1.429862669639702
 31
0.0
210
0.0
220
0.0
230
1.0
 40
0.578093115915639
 41
4.170364932779383
 42
5.254413027989771
  0
ELLIPSE
  5
2FB
330
75
100
AcDbEntity
  8
Visible (ISO)
100
AcDbEllipse
 10
39.98548272557439
 20
245.3720068426243
 30
0.0
 11
-0.8234031491138988
 21
1.429862669639745
 31
0.0
210
0.0
220
0.0
230
1.0
 40
0.5780931159156388
 41
2.881066455884221
 42
6.543711504885188
  0
ELLIPSE
  5
2FC
330
75
100
AcDbEntity
  8
Visible (ISO)
100
AcDbEllipse
 10
38.7561659328572
 20
244.6640903833205
 30
0.0
 11
-0.8234031491139802
 21
1.429862669639691
 31
0.0
210
0.0
220
0.0
230
1.0
 40
0.5780931159156389
 41
4.170364932779358
 42
5.254413027989807
  0
ELLIPSE
  5
2FD
330
75
100
AcDbEntity
  8
Visible (ISO)
100
AcDbEllipse
 10
74.28016161311683
 20
225.6230147236931
 30
0.0
 11
-0.8234031491138996
 21
1.429862669639747
 31
0.0
210
0.0
220
0.0
230
1.0
 40
0.5780931159156389
 41
2.881066455884191
 42
6.543711504885163
  0
ELLIPSE
  5
2FE
330
75
100
AcDbEntity
  8
Visible (ISO)
100
AcDbEllipse
 10
73.05084482039962
 20
224.9150982643894
 30
0.0
 11
-0.8234031491139875
 21
1.429862669639702
 31
0.0
210
0.0
220
0.0
230
1.0
 40
0.578093115915639
 41
4.170364932779383
 42
5.254413027989791
  0
ELLIPSE
  5
2FF
330
75
100
AcDbEntity
  8
Visible (ISO)
100
AcDbEllipse
 10
38.7561659328572
 20
204.9313001159731
 30
0.0
 11
-0.8234031491139839
 21
1.429862669639696
 31
0.0
210
0.0
220
0.0
230
1.0
 40
0.5780931159156388
 41
4.170364932779358
 42
5.254413027989807
  0
ELLIPSE
  5
300
330
75
100
AcDbEntity
  8
Visible (ISO)
100
AcDbEllipse
 10
39.98548272557437
 20
205.6392165752768
 30
0.0
 11
-0.8234031491138985
 21
1.429862669639745
 31
0.0
210
0.0
220
0.0
230
0.9999999999999998
 40
0.5780931159156388
 41
2.88106645588423
 42
6.543711504885152
  0
LINE
  5
301
330
75
100
AcDbEntity
  8
Visible (ISO)
100
AcDbLine
 10
111.9063624466042
 20
270.4971539261962
 30
0.0
 11
92.81447935456462
 21
259.5028696538048
 31
0.0
  0
LINE
  5
302
330
75
100
AcDbEntity
  8
Visible (ISO)
100
AcDbLine
 10
111.9063624466042
 20
169.1213104457212
 30
0.0
 11
111.9063624466042
 21
162.1721598845596
 31
0.0
  0
LINE
  5
303
330
75
100
AcDbEntity
  8
Visible (ISO)
100
AcDbLine
 10
111.9063624466042
 20
162.1721598845596
 30
0.0
 11
113.3205760089775
 21
161.3514570624591
 31
0.0
  0
LINE
  5
304
330
75
100
AcDbEntity
  8
Visible (ISO)
100
AcDbLine
 10
113.3205760089775
 20
161.3514570624591
 30
0.0
 11
121.8058573832173
 21
166.2378056279664
 31
0.0
  0
LINE
  5
305
330
75
100
AcDbEntity
  8
Visible (ISO)
100
AcDbLine
 10
121.8058573832173
 20
166.2378056279664
 30
0.0
 11
123.2200709455906
 21
168.687291305236
 31
0.0
  0
LINE
  5
306
330
75
100
AcDbEntity
  8
Visible (ISO)
100
AcDbLine
 10
123.2200709455906
 20
168.687291305236
 30
0.0
 11
123.2200709455907
 21
283.9614359080341
 31
0.0
  0
LINE
  5
307
330
75
100
AcDbEntity
  8
Visible (ISO)
100
AcDbLine
 10
123.2200709455907
 20
283.9614359080341
 30
0.0
 11
121.8058573832174
 21
284.7821387301347
 31
0.0
  0
LINE
  5
308
330
75
100
AcDbEntity
  8
Visible (ISO)
100
AcDbLine
 10
121.8058573832174
 20
284.7821387301347
 30
0.0
 11
113.3205760089775
 21
279.8957901646274
 31
0.0
  0
LINE
  5
309
330
75
100
AcDbEntity
  8
Visible (ISO)
100
AcDbLine
 10
113.3205760089775
 20
279.8957901646274
 30
0.0
 11
111.9063624466042
 21
277.4463044873577
 31
0.0
  0
LINE
  5
30A
330
75
100
AcDbEntity
  8
Visible (ISO)
100
AcDbLine
 10
111.9063624466042
 20
277.4463044873577
 30
0.0
 11
111.9063624466042
 21
270.4971539261962
 31
0.0
  0
LINE
  5
30B
330
75
100
AcDbEntity
  8
Visible (ISO)
100
AcDbLine
 10
92.81447935456462
 20
259.5028696538048
 30
0.0
 11
92.81447935456462
 21
266.4520202149664
 31
0.0
  0
LINE
  5
30C
330
75
100
AcDbEntity
  8
Visible (ISO)
100
AcDbLine
 10
92.81447935456462
 20
266.4520202149664
 30
0.0
 11
91.40026579219131
 21
267.2727230370669
 31
0.0
  0
LINE
  5
30D
330
75
100
AcDbEntity
  8
Visible (ISO)
100
AcDbLine
 10
91.40026579219131
 20
267.2727230370669
 30
0.0
 11
82.91498441795148
 21
262.3863744715596
 31
0.0
  0
LINE
  5
30E
330
75
100
AcDbEntity
  8
Visible (ISO)
100
AcDbLine
 10
82.91498441795148
 20
262.3863744715596
 30
0.0
 11
81.50077085557818
 21
259.9368887942899
 31
0.0
  0
LINE
  5
30F
330
75
100
AcDbEntity
  8
Visible (ISO)
100
AcDbLine
 10
81.50077085557818
 20
259.9368887942899
 30
0.0
 11
81.50077085557818
 21
249.3087761713369
 31
0.0
  0
LINE
  5
310
330
75
100
AcDbEntity
  8
Visible (ISO)
100
AcDbLine
 10
81.50077085557818
 20
249.3087761713369
 30
0.0
 11
79.02589712142489
 21
247.883591173064
 31
0.0
  0
LINE
  5
311
330
75
100
AcDbEntity
  8
Visible Narrow (ISO)
100
AcDbLine
 10
79.02589712142487
 20
153.8656718161719
 30
0.0
 11
79.02589712142489
 21
247.883591173064
 31
0.0
  0
LINE
  5
312
330
75
100
AcDbEntity
  8
Visible (ISO)
100
AcDbLine
 10
79.02589712142487
 20
153.8656718161719
 30
0.0
 11
81.50077085557818
 21
155.2908568144448
 31
0.0
  0
LINE
  5
313
330
75
100
AcDbEntity
  8
Visible (ISO)
100
AcDbLine
 10
81.50077085557818
 20
155.2908568144448
 30
0.0
 11
81.50077085557816
 21
144.6627441914918
 31
0.0
  0
LINE
  5
314
330
75
100
AcDbEntity
  8
Visible (ISO)
100
AcDbLine
 10
81.50077085557816
 20
144.6627441914918
 30
0.0
 11
82.91498441795141
 21
143.8420413693913
 31
0.0
  0
LINE
  5
315
330
75
100
AcDbEntity
  8
Visible (ISO)
100
AcDbLine
 10
82.91498441795141
 20
143.8420413693913
 30
0.0
 11
91.40026579219126
 21
148.7283899348986
 31
0.0
  0
LINE
  5
316
330
75
100
AcDbEntity
  8
Visible (ISO)
100
AcDbLine
 10
91.40026579219126
 20
148.7283899348986
 30
0.0
 11
92.8144793545646
 21
151.1778756121682
 31
0.0
  0
LINE
  5
317
330
75
100
AcDbEntity
  8
Visible (ISO)
100
AcDbLine
 10
92.8144793545646
 20
151.1778756121682
 30
0.0
 11
92.8144793545646
 21
158.1270261733298
 31
0.0
  0
LINE
  5
318
330
75
100
AcDbEntity
  8
Visible (ISO)
100
AcDbLine
 10
92.8144793545646
 20
158.1270261733298
 30
0.0
 11
111.9063624466042
 21
169.1213104457212
 31
0.0
  0
ELLIPSE
  5
319
330
75
100
AcDbEntity
  8
Visible (ISO)
100
AcDbEllipse
 10
87.15762510507136
 20
150.5364607013262
 30
0.0
 11
1.297483750119454
 21
2.253116933977457
 31
0.0
210
0.0
220
0.0
230
1.0
 40
0.5780931159158106
 41
0.0
 42
6.283185307179586
  0
ELLIPSE
  5
31A
330
75
100
AcDbEntity
  8
Visible (ISO)
100
AcDbEllipse
 10
87.1576251050714
 20
260.7418131301005
 30
0.0
 11
1.297483750119454
 21
2.253116933977457
 31
0.0
210
0.0
220
0.0
230
1.0
 40
0.5780931159158106
 41
0.0
 42
6.283185307179586
  0
ELLIPSE
  5
31B
330
75
100
AcDbEntity
  8
Visible (ISO)
100
AcDbEllipse
 10
117.5632166960974
 20
278.2512288231683
 30
0.0
 11
1.297483750119454
 21
2.253116933977457
 31
0.0
210
0.0
220
0.0
230
1.0
 40
0.5780931159158106
 41
0.0
 42
6.283185307179586
  0
ELLIPSE
  5
31C
330
75
100
AcDbEntity
  8
Visible (ISO)
100
AcDbEllipse
 10
117.5632166960974
 20
167.8823669694255
 30
0.0
 11
1.297483750119454
 21
2.253116933977457
 31
0.0
210
0.0
220
0.0
230
1.0
 40
0.5780931159158106
 41
0.0
 42
6.283185307179586
  0
LINE
  5
31D
330
75
100
AcDbEntity
  8
Visible (ISO)
100
AcDbLine
 10
86.45051832388475
 20
189.3142986812368
 30
0.0
 11
86.45051832388475
 21
190.7858835059534
 31
0.0
  0
LINE
  5
31E
330
75
100
AcDbEntity
  8
Visible (ISO)
100
AcDbLine
 10
86.45051832388475
 20
190.7858835059534
 30
0.0
 11
92.10737257337797
 21
194.0434492162916
 31
0.0
  0
LINE
  5
31F
330
75
100
AcDbEntity
  8
Visible (ISO)
100
AcDbLine
 10
92.10737257337797
 20
194.0434492162916
 30
0.0
 11
92.10737257337797
 21
192.571864391575
 31
0.0
  0
LINE
  5
320
330
75
100
AcDbEntity
  8
Visible (ISO)
100
AcDbLine
 10
92.10737257337797
 20
192.571864391575
 30
0.0
 11
86.45051832388475
 21
189.3142986812368
 31
0.0
  0
LINE
  5
321
330
75
100
AcDbEntity
  8
Visible (ISO)
100
AcDbLine
 10
114.7347895713508
 20
205.6021272329278
 30
0.0
 11
114.7347895713508
 21
207.0737120576443
 31
0.0
  0
LINE
  5
322
330
75
100
AcDbEntity
  8
Visible (ISO)
100
AcDbLine
 10
114.7347895713508
 20
207.0737120576443
 30
0.0
 11
120.3916438208441
 21
210.3312777679825
 31
0.0
  0
LINE
  5
323
330
75
100
AcDbEntity
  8
Visible (ISO)
100
AcDbLine
 10
120.3916438208441
 20
210.3312777679825
 30
0.0
 11
120.3916438208441
 21
208.859692943266
 31
0.0
  0
LINE
  5
324
330
75
100
AcDbEntity
  8
Visible (ISO)
100
AcDbLine
 10
120.3916438208441
 20
208.859692943266
 30
0.0
 11
114.7347895713508
 21
205.6021272329278
 31
0.0
  0
ELLIPSE
  5
325
330
75
100
AcDbEntity
  8
Visible (ISO)
100
AcDbEllipse
 10
89.27894544863136
 20
226.7271191907639
 30
0.0
 11
0.6736934856389453
 21
1.169887638795983
 31
0.0
210
0.0
220
0.0
230
0.9999999999999998
 40
0.5780931159158106
 41
0.0
 42
6.283185307179586
  0
ELLIPSE
  5
326
330
75
100
AcDbEntity
  8
Visible (ISO)
100
AcDbEllipse
 10
89.27894544863136
 20
186.9943289234164
 30
0.0
 11
0.673693485638947
 21
1.169887638795986
 31
0.0
210
0.0
220
0.0
230
1.0
 40
0.5780931159158106
 41
0.0
 42
6.283185307179586
  0
ELLIPSE
  5
327
330
75
100
AcDbEntity
  8
Visible (ISO)
100
AcDbEllipse
 10
117.5632166960975
 20
243.0149477424548
 30
0.0
 11
0.6736934856389453
 21
1.169887638795983
 31
0.0
210
0.0
220
0.0
230
0.9999999999999998
 40
0.5780931159158106
 41
0.0
 42
6.283185307179586
  0
ELLIPSE
  5
328
330
75
100
AcDbEntity
  8
Visible (ISO)
100
AcDbEllipse
 10
117.5632166960975
 20
203.2821574751074
 30
0.0
 11
0.673693485638947
 21
1.169887638795986
 31
0.0
210
0.0
220
0.0
230
1.0
 40
0.5780931159158106
 41
0.0
 42
6.283185307179586
  0
ELLIPSE
  5
329
330
75
100
AcDbEntity
  8
Visible (ISO)
100
AcDbEllipse
 10
102.0068675099911
 20
210.3477754185912
 30
0.0
 11
1.122822476064794
 21
1.949812731326709
 31
0.0
210
0.0
220
0.0
230
1.0
 40
0.5780931159158107
 41
0.0
 42
6.283185307179586
  0
LINE
  5
32A
330
75
100
AcDbEntity
  8
Visible (ISO)
100
AcDbLine
 10
100.4512325913804
 20
184.7620216780034
 30
0.0
 11
103.5625024286017
 21
186.5536828186894
 31
0.0
  0
LINE
  5
32B
330
75
100
AcDbEntity
  8
Visible (ISO)
100
AcDbLine
 10
100.4512325913804
 20
188.3592290273106
 30
0.0
 11
100.4512325913804
 21
184.7620216780034
 31
0.0
  0
LINE
  5
32C
330
75
100
AcDbEntity
  8
Visible (ISO)
100
AcDbLine
 10
103.5625024286017
 20
190.1508901679966
 30
0.0
 11
100.4512325913804
 21
188.3592290273106
 31
0.0
  0
LINE
  5
32D
330
75
100
AcDbEntity
  8
Visible (ISO)
100
AcDbLine
 10
103.5625024286017
 20
186.5536828186894
 30
0.0
 11
103.5625024286017
 21
190.1508901679966
 31
0.0
  0
LINE
  5
32E
330
75
100
AcDbEntity
  8
Visible (ISO)
100
AcDbLine
 10
99.03701902900715
 20
200.7891010221752
 30
0.0
 11
99.03701902900715
 21
196.3743465480255
 31
0.0
  0
LINE
  5
32F
330
75
100
AcDbEntity
  8
Visible (ISO)
100
AcDbLine
 10
104.976715990975
 20
204.2095450180303
 30
0.0
 11
99.03701902900715
 21
200.7891010221752
 31
0.0
  0
LINE
  5
330
330
75
100
AcDbEntity
  8
Visible (ISO)
100
AcDbLine
 10
104.976715990975
 20
199.7947905438806
 30
0.0
 11
104.976715990975
 21
204.2095450180303
 31
0.0
  0
LINE
  5
331
330
75
100
AcDbEntity
  8
Visible (ISO)
100
AcDbLine
 10
103.5625024286017
 20
197.345304866611
 30
0.0
 11
104.976715990975
 21
199.7947905438806
 31
0.0
  0
LINE
  5
332
330
75
100
AcDbEntity
  8
Visible (ISO)
100
AcDbLine
 10
103.5625024286017
 20
191.7859844176817
 30
0.0
 11
103.5625024286017
 21
197.345304866611
 31
0.0
  0
LINE
  5
333
330
75
100
AcDbEntity
  8
Visible (ISO)
100
AcDbLine
 10
100.4512325913804
 20
189.9943232769957
 30
0.0
 11
103.5625024286017
 21
191.7859844176817
 31
0.0
  0
LINE
  5
334
330
75
100
AcDbEntity
  8
Visible (ISO)
100
AcDbLine
 10
100.4512325913804
 20
195.5536437259249
 30
0.0
 11
100.4512325913804
 21
189.9943232769957
 31
0.0
  0
LINE
  5
335
330
75
100
AcDbEntity
  8
Visible (ISO)
100
AcDbLine
 10
99.03701902900715
 20
196.3743465480255
 30
0.0
 11
100.4512325913804
 21
195.5536437259249
 31
0.0
  0
LINE
  5
336
330
75
100
AcDbEntity
  8
Visible (ISO)
100
AcDbLine
 10
99.03701902900715
 20
255.5647583866254
 30
0.0
 11
99.03701902900715
 21
251.1500039124757
 31
0.0
  0
LINE
  5
337
330
75
100
AcDbEntity
  8
Visible (ISO)
100
AcDbLine
 10
104.976715990975
 20
258.9852023824804
 30
0.0
 11
99.03701902900715
 21
255.5647583866254
 31
0.0
  0
LINE
  5
338
330
75
100
AcDbEntity
  8
Visible (ISO)
100
AcDbLine
 10
104.976715990975
 20
254.5704479083308
 30
0.0
 11
104.976715990975
 21
258.9852023824804
 31
0.0
  0
LINE
  5
339
330
75
100
AcDbEntity
  8
Visible (ISO)
100
AcDbLine
 10
103.5625024286017
 20
252.1209622310612
 30
0.0
 11
104.976715990975
 21
254.5704479083308
 31
0.0
  0
LINE
  5
33A
330
75
100
AcDbEntity
  8
Visible (ISO)
100
AcDbLine
 10
103.5625024286017
 20
246.5616417821319
 30
0.0
 11
103.5625024286017
 21
252.1209622310612
 31
0.0
  0
LINE
  5
33B
330
75
100
AcDbEntity
  8
Visible (ISO)
100
AcDbLine
 10
100.4512325913804
 20
244.7699806414459
 30
0.0
 11
103.5625024286017
 21
246.5616417821319
 31
0.0
  0
LINE
  5
33C
330
75
100
AcDbEntity
  8
Visible (ISO)
100
AcDbLine
 10
100.4512325913804
 20
250.3293010903752
 30
0.0
 11
100.4512325913804
 21
244.7699806414459
 31
0.0
  0
LINE
  5
33D
330
75
100
AcDbEntity
  8
Visible (ISO)
100
AcDbLine
 10
99.03701902900715
 20
251.1500039124757
 30
0.0
 11
100.4512325913804
 21
250.3293010903752
 31
0.0
  0
LINE
  5
33E
330
75
100
AcDbEntity
  8
Visible (ISO)
100
AcDbLine
 10
114.3812361807572
 20
160.7406634917705
 30
0.0
 11
122.866517554997
 21
165.6270120572778
 31
0.0
  0
LINE
  5
33F
330
75
100
AcDbEntity
  8
Visible (ISO)
100
AcDbLine
 10
93.87513952634426
 20
157.5162326026412
 30
0.0
 11
111.9063624466042
 21
167.8997233043443
 31
0.0
  0
LINE
  5
340
330
75
100
AcDbEntity
  8
Visible (ISO)
100
AcDbLine
 10
93.87513952634426
 20
150.5670820414796
 30
0.0
 11
93.87513952634426
 21
157.5162326026412
 31
0.0
  0
LINE
  5
341
330
75
100
AcDbEntity
  8
Visible (ISO)
100
AcDbLine
 10
93.87513952634426
 20
150.5670820414796
 30
0.0
 11
92.46092596397094
 21
148.11759636421
 31
0.0
  0
LINE
  5
342
330
75
100
AcDbEntity
  8
Visible (ISO)
100
AcDbLine
 10
83.97564458973111
 20
143.2312477987027
 30
0.0
 11
92.46092596397094
 21
148.11759636421
 31
0.0
  0
LINE
  5
343
330
75
100
AcDbEntity
  8
Visible (ISO)
100
AcDbLine
 10
80.08655729320455
 20
153.2548782454833
 30
0.0
 11
81.50077085557818
 21
154.069269673068
 31
0.0
  0
LINE
  5
344
330
75
100
AcDbEntity
  8
Visible (ISO)
100
AcDbLine
 10
92.46092596397099
 20
266.6619294663783
 30
0.0
 11
93.8751395263443
 21
265.8412266442777
 31
0.0
  0
LINE
  5
345
330
75
100
AcDbEntity
  8
Visible (ISO)
100
AcDbLine
 10
93.87513952634428
 20
260.113663224493
 30
0.0
 11
93.8751395263443
 21
265.8412266442777
 31
0.0
  0
LINE
  5
346
330
75
100
AcDbEntity
  8
Visible (ISO)
100
AcDbLine
 10
122.866517554997
 20
284.171345159446
 30
0.0
 11
124.2807311173703
 21
283.3506423373455
 31
0.0
  0
LINE
  5
347
330
75
100
AcDbEntity
  8
Visible (ISO)
100
AcDbLine
 10
124.2807311173703
 20
168.0764977345474
 30
0.0
 11
124.2807311173703
 21
283.3506423373455
 31
0.0
  0
LINE
  5
348
330
75
100
AcDbEntity
  8
Visible (ISO)
100
AcDbLine
 10
124.2807311173703
 20
168.0764977345474
 30
0.0
 11
122.866517554997
 21
165.6270120572778
 31
0.0
  0
ELLIPSE
  5
349
330
75
100
AcDbEntity
  8
Visible (ISO)
100
AcDbEllipse
 10
88.21828527685106
 20
260.1310195594119
 30
0.0
 11
1.297483750119587
 21
2.253116933977377
 31
0.0
210
0.0
220
0.0
230
0.9999999999999998
 40
0.5780931159158107
 41
0.4193421108859443
 42
2.722250542704708
  0
ELLIPSE
  5
34A
330
75
100
AcDbEntity
  8
Visible (ISO)
100
AcDbEllipse
 10
118.6238768678771
 20
277.6404352524797
 30
0.0
 11
1.297483750119589
 21
2.253116933977378
 31
0.0
210
0.0
220
0.0
230
1.0
 40
0.5780931159158106
 41
0.4193421108859452
 42
2.722250542704708
  0
ELLIPSE
  5
34B
330
75
100
AcDbEntity
  8
Visible (ISO)
100
AcDbEllipse
 10
118.6238768678771
 20
167.2715733987368
 30
0.0
 11
1.297483750119587
 21
2.253116933977377
 31
0.0
210
0.0
220
0.0
230
0.9999999999999998
 40
0.5780931159158107
 41
0.4193421108859443
 42
2.722250542704708
  0
LINE
  5
34C
330
75
100
AcDbEntity
  8
Visible (ISO)
100
AcDbLine
 10
87.51117849566442
 20
190.1750899352648
 30
0.0
 11
92.10737257337797
 21
192.8218620749147
 31
0.0
  0
LINE
  5
34D
330
75
100
AcDbEntity
  8
Visible (ISO)
100
AcDbLine
 10
87.51117849566441
 20
189.925092251925
 30
0.0
 11
87.51117849566442
 21
190.1750899352648
 31
0.0
  0
LINE
  5
34E
330
75
100
AcDbEntity
  8
Visible (ISO)
100
AcDbLine
 10
115.7954497431305
 20
206.4629184869557
 30
0.0
 11
120.3916438208441
 21
209.1096906266057
 31
0.0
  0
LINE
  5
34F
330
75
100
AcDbEntity
  8
Visible (ISO)
100
AcDbLine
 10
115.7954497431305
 20
206.212920803616
 30
0.0
 11
115.7954497431305
 21
206.4629184869557
 31
0.0
  0
ELLIPSE
  5
350
330
75
100
AcDbEntity
  8
Visible (ISO)
100
AcDbEllipse
 10
90.33960562041102
 20
226.1163256200753
 30
0.0
 11
0.6736934856390149
 21
1.169887638795942
 31
0.0
210
0.0
220
0.0
230
0.9999999999999998
 40
0.5780931159158106
 41
0.9013402729253918
 42
2.240252380664729
  0
ELLIPSE
  5
351
330
75
100
AcDbEntity
  8
Visible (ISO)
100
AcDbEllipse
 10
90.33960562041102
 20
186.3835353527278
 30
0.0
 11
0.6736934856390149
 21
1.169887638795941
 31
0.0
210
0.0
220
0.0
230
0.9999999999999998
 40
0.5780931159158106
 41
0.9013402729254131
 42
2.240252380664761
  0
ELLIPSE
  5
352
330
75
100
AcDbEntity
  8
Visible (ISO)
100
AcDbEllipse
 10
118.6238768678771
 20
242.4041541717662
 30
0.0
 11
0.6736934856390139
 21
1.16988763879594
 31
0.0
210
0.0
220
0.0
230
0.9999999999999998
 40
0.5780931159158106
 41
0.9013402729253918
 42
2.240252380664729
  0
ELLIPSE
  5
353
330
75
100
AcDbEntity
  8
Visible (ISO)
100
AcDbEllipse
 10
118.6238768678771
 20
202.6713639044188
 30
0.0
 11
0.6736934856390131
 21
1.169887638795939
 31
0.0
210
0.0
220
0.0
230
0.9999999999999998
 40
0.5780931159158106
 41
0.9013402729253954
 42
2.240252380664761
  0
ELLIPSE
  5
354
330
75
100
AcDbEntity
  8
Visible (ISO)
100
AcDbEllipse
 10
103.0675276817707
 20
209.7369818479026
 30
0.0
 11
1.122822476065027
 21
1.949812731326575
 31
0.0
210
0.0
220
0.0
230
1.0
 40
0.5780931159158107
 41
0.4898523421849675
 42
2.65174031140561
  0
LINE
  5
355
330
75
100
AcDbEntity
  8
Visible (ISO)
100
AcDbLine
 10
101.5118927631601
 20
185.3728152486917
 30
0.0
 11
101.5118927631601
 21
187.748435456622
 31
0.0
  0
LINE
  5
356
330
75
100
AcDbEntity
  8
Visible (ISO)
100
AcDbLine
 10
101.5118927631601
 20
187.748435456622
 30
0.0
 11
103.5625024286017
 21
188.9293030266198
 31
0.0
  0
LINE
  5
357
330
75
100
AcDbEntity
  8
Visible (ISO)
100
AcDbLine
 10
100.0976792007868
 20
200.1783074514867
 30
0.0
 11
104.976715990975
 21
202.9879578766535
 31
0.0
  0
LINE
  5
358
330
75
100
AcDbEntity
  8
Visible (ISO)
100
AcDbLine
 10
100.0976792007868
 20
195.7635529773369
 30
0.0
 11
100.0976792007868
 21
200.1783074514867
 31
0.0
  0
LINE
  5
359
330
75
100
AcDbEntity
  8
Visible (ISO)
100
AcDbLine
 10
101.5118927631601
 20
194.9428501552364
 30
0.0
 11
100.0976792007868
 21
195.7635529773369
 31
0.0
  0
LINE
  5
35A
330
75
100
AcDbEntity
  8
Visible (ISO)
100
AcDbLine
 10
101.5118927631601
 20
190.605116847684
 30
0.0
 11
101.5118927631601
 21
194.9428501552364
 31
0.0
  0
LINE
  5
35B
330
75
100
AcDbEntity
  8
Visible (ISO)
100
AcDbLine
 10
100.0976792007868
 20
254.9539648159368
 30
0.0
 11
104.976715990975
 21
257.7636152411037
 31
0.0
  0
LINE
  5
35C
330
75
100
AcDbEntity
  8
Visible (ISO)
100
AcDbLine
 10
100.0976792007868
 20
250.5392103417871
 30
0.0
 11
100.0976792007868
 21
254.9539648159368
 31
0.0
  0
LINE
  5
35D
330
75
100
AcDbEntity
  8
Visible (ISO)
100
AcDbLine
 10
101.5118927631601
 20
249.7185075196866
 30
0.0
 11
100.0976792007868
 21
250.5392103417871
 31
0.0
  0
LINE
  5
35E
330
75
100
AcDbEntity
  8
Visible (ISO)
100
AcDbLine
 10
101.5118927631601
 20
245.3807742121341
 30
0.0
 11
101.5118927631601
 21
249.7185075196866
 31
0.0
  0
ELLIPSE
  5
35F
330
75
100
AcDbEntity
  8
Visible (ISO)
100
AcDbEllipse
 10
88.21828527685102
 20
149.9256671306375
 30
0.0
 11
1.297483750119587
 21
2.253116933977377
 31
0.0
210
0.0
220
0.0
230
0.9999999999999998
 40
0.5780931159158107
 41
0.4193421108859479
 42
2.722250542704708
  0
LINE
  5
360
330
75
100
AcDbEntity
  8
Visible (ISO)
100
AcDbLine
 10
93.8751395263443
 20
265.8412266442777
 30
0.0
 11
92.81447935456462
 21
266.4520202149664
 31
0.0
  0
LINE
  5
361
330
75
100
AcDbEntity
  8
Visible (ISO)
100
AcDbLine
 10
100.4512325913804
 20
188.3592290273106
 30
0.0
 11
101.5118927631601
 21
187.748435456622
 31
0.0
  0
LINE
  5
362
330
75
100
AcDbEntity
  8
Visible (ISO)
100
AcDbLine
 10
92.8144793545646
 20
151.1778756121682
 30
0.0
 11
93.87513952634426
 21
150.5670820414796
 31
0.0
  0
LINE
  5
363
330
75
100
AcDbEntity
  8
Visible (ISO)
100
AcDbLine
 10
92.8144793545646
 20
158.1270261733298
 30
0.0
 11
93.87513952634426
 21
157.5162326026412
 31
0.0
  0
LINE
  5
364
330
75
100
AcDbEntity
  8
Visible (ISO)
100
AcDbLine
 10
99.03701902900715
 20
251.1500039124757
 30
0.0
 11
100.0976792007868
 21
250.5392103417871
 31
0.0
  0
LINE
  5
365
330
75
100
AcDbEntity
  8
Visible (ISO)
100
AcDbLine
 10
99.03701902900715
 20
255.5647583866254
 30
0.0
 11
100.0976792007868
 21
254.9539648159368
 31
0.0
  0
LINE
  5
366
330
75
100
AcDbEntity
  8
Visible (ISO)
100
AcDbLine
 10
113.3205760089775
 20
161.3514570624591
 30
0.0
 11
114.3812361807572
 21
160.7406634917705
 31
0.0
  0
LINE
  5
367
330
75
100
AcDbEntity
  8
Visible (ISO)
100
AcDbLine
 10
122.866517554997
 20
165.6270120572778
 30
0.0
 11
121.8058573832173
 21
166.2378056279664
 31
0.0
  0
LINE
  5
368
330
75
100
AcDbEntity
  8
Visible (ISO)
100
AcDbLine
 10
100.4512325913804
 20
195.5536437259249
 30
0.0
 11
101.5118927631601
 21
194.9428501552364
 31
0.0
  0
LINE
  5
369
330
75
100
AcDbEntity
  8
Visible (ISO)
100
AcDbLine
 10
100.4512325913804
 20
250.3293010903752
 30
0.0
 11
101.5118927631601
 21
249.7185075196866
 31
0.0
  0
LINE
  5
36A
330
75
100
AcDbEntity
  8
Visible (ISO)
100
AcDbLine
 10
92.46092596397094
 20
148.11759636421
 30
0.0
 11
91.40026579219126
 21
148.7283899348986
 31
0.0
  0
LINE
  5
36B
330
75
100
AcDbEntity
  8
Visible (ISO)
100
AcDbLine
 10
82.91498441795141
 20
143.8420413693913
 30
0.0
 11
83.97564458973111
 21
143.2312477987027
 31
0.0
  0
LINE
  5
36C
330
75
100
AcDbEntity
  8
Visible (ISO)
100
AcDbLine
 10
91.40026579219131
 20
267.2727230370669
 30
0.0
 11
92.46092596397099
 21
266.6619294663783
 31
0.0
  0
LINE
  5
36D
330
75
100
AcDbEntity
  8
Visible (ISO)
100
AcDbLine
 10
114.7347895713508
 20
207.0737120576443
 30
0.0
 11
115.7954497431305
 21
206.4629184869557
 31
0.0
  0
LINE
  5
36E
330
75
100
AcDbEntity
  8
Visible (ISO)
100
AcDbLine
 10
86.45051832388475
 20
190.7858835059534
 30
0.0
 11
87.51117849566442
 21
190.1750899352648
 31
0.0
  0
LINE
  5
36F
330
75
100
AcDbEntity
  8
Visible (ISO)
100
AcDbLine
 10
124.2807311173703
 20
283.3506423373455
 30
0.0
 11
123.2200709455907
 21
283.9614359080341
 31
0.0
  0
LINE
  5
370
330
75
100
AcDbEntity
  8
Visible (ISO)
100
AcDbLine
 10
123.2200709455906
 20
168.687291305236
 30
0.0
 11
124.2807311173703
 21
168.0764977345474
 31
0.0
  0
LINE
  5
371
330
75
100
AcDbEntity
  8
Visible Narrow (ISO)
100
AcDbLine
 10
79.02589712142487
 20
153.8656718161719
 30
0.0
 11
80.08655729320455
 21
153.2548782454833
 31
0.0
  0
LINE
  5
372
330
75
100
AcDbEntity
  8
Visible (ISO)
100
AcDbLine
 10
99.03701902900715
 20
196.3743465480255
 30
0.0
 11
100.0976792007868
 21
195.7635529773369
 31
0.0
  0
LINE
  5
373
330
75
100
AcDbEntity
  8
Visible (ISO)
100
AcDbLine
 10
99.03701902900715
 20
200.7891010221752
 30
0.0
 11
100.0976792007868
 21
200.1783074514867
 31
0.0
  0
LINE
  5
374
330
75
100
AcDbEntity
  8
Visible (ISO)
100
AcDbLine
 10
121.8058573832174
 20
284.7821387301347
 30
0.0
 11
122.866517554997
 21
284.171345159446
 31
0.0
  0
ELLIPSE
  5
375
330
75
100
AcDbEntity
  8
Visible (ISO)
100
AcDbEllipse
 10
78.31879034023843
 20
154.2728675299643
 30
0.0
 11
-1.0
 21
0.0000000000000594
 31
0.0
210
0.0
220
0.0
230
1.0
 40
0.5758617009853121
 41
0.7853981633975576
 42
2.356194490192432
  0
ELLIPSE
  5
376
330
75
100
AcDbEntity
  8
Visible (ISO)
100
AcDbEllipse
 10
78.31879034023845
 20
248.2907868868564
 30
0.0
 11
-1.000000000000001
 21
0.0000000000000594
 31
0.0
210
0.0
220
0.0
230
1.0
 40
0.5758617009853121
 41
0.7853981633975638
 42
2.356194490192468
  0
LINE
  5
377
330
75
100
AcDbEntity
  8
Visible Narrow (ISO)
100
AcDbLine
 10
77.61168355905181
 20
247.8835911730641
 30
0.0
 11
77.6116835590518
 21
229.4016439350315
 31
0.0
  0
LINE
  5
378
330
75
100
AcDbEntity
  8
Visible Narrow (ISO)
100
AcDbLine
 10
77.6116835590518
 20
219.9297175439099
 30
0.0
 11
77.6116835590518
 21
189.3125777185568
 31
0.0
  0
LINE
  5
379
330
75
100
AcDbEntity
  8
Visible Narrow (ISO)
100
AcDbLine
 10
77.6116835590518
 20
179.8406513274352
 30
0.0
 11
77.61168355905178
 21
153.865671816172
 31
0.0
  0
ELLIPSE
  5
37A
330
75
100
AcDbEntity
  8
Visible (ISO)
100
AcDbEllipse
 10
78.31879034023843
 20
154.2728675299643
 30
0.0
 11
-2.499999999999998
 21
0.0000000000001485
 31
0.0
210
0.0
220
0.0
230
1.0
 40
0.5758617009853119
 41
0.7853981633975345
 42
2.356194490192432
  0
LINE
  5
37B
330
75
100
AcDbEntity
  8
Visible Narrow (ISO)
100
AcDbLine
 10
76.55102338727163
 20
153.2548782454835
 30
0.0
 11
77.61168355905178
 21
153.865671816172
 31
0.0
  0
LINE
  5
37C
330
75
100
AcDbEntity
  8
Visible (ISO)
100
AcDbLine
 10
40.13502415617023
 20
254.6060450100478
 30
0.0
 11
41.5492377185431
 21
253.791653582463
 31
0.0
  0
LINE
  5
37D
330
75
100
AcDbEntity
  8
Visible (ISO)
100
AcDbLine
 10
41.5492377185431
 20
253.791653582463
 30
0.0
 11
41.5492377185431
 21
251.0231123490609
 31
0.0
  0
LINE
  5
37E
330
75
100
AcDbEntity
  8
Visible (ISO)
100
AcDbLine
 10
41.5492377185431
 20
239.4751118059455
 30
0.0
 11
41.5492377185431
 21
210.0795591219695
 31
0.0
  0
LINE
  5
37F
330
75
100
AcDbEntity
  8
Visible (ISO)
100
AcDbLine
 10
41.5492377185431
 20
195.681188582306
 30
0.0
 11
41.5492377185431
 21
189.6550816385657
 31
0.0
  0
LINE
  5
380
330
75
100
AcDbEntity
  8
Visible (ISO)
100
AcDbLine
 10
41.5492377185431
 20
189.6550816385657
 30
0.0
 11
40.13502415617023
 21
190.4694730661505
 31
0.0
  0
LINE
  5
381
330
75
100
AcDbEntity
  8
Visible (ISO)
100
AcDbLine
 10
40.13502415617035
 20
192.8930637980485
 30
0.0
 11
40.13502415617023
 21
190.4694730661505
 31
0.0
  0
LINE
  5
382
330
75
100
AcDbEntity
  8
Visible Narrow (ISO)
100
AcDbLine
 10
40.13502415617035
 20
192.8930637980485
 30
0.0
 11
34.83172329727202
 21
195.9470316514914
 31
0.0
  0
LINE
  5
383
330
75
100
AcDbEntity
  8
Visible (ISO)
100
AcDbLine
 10
34.83172329727186
 20
178.5010125006118
 30
0.0
 11
34.83172329727202
 21
195.9470316514914
 31
0.0
  0
LINE
  5
384
330
75
100
AcDbEntity
  8
Visible (ISO)
100
AcDbLine
 10
34.83172329727186
 20
178.5010125006118
 30
0.0
 11
77.6116835590518
 21
153.865671816172
 31
0.0
  0
LINE
  5
385
330
75
100
AcDbEntity
  8
Visible (ISO)
100
AcDbLine
 10
34.83172329727188
 20
272.5189318575039
 30
0.0
 11
77.6116835590518
 21
247.8835911730641
 31
0.0
  0
LINE
  5
386
330
75
100
AcDbEntity
  8
Visible (ISO)
100
AcDbLine
 10
34.83172329727202
 20
255.2364221315929
 30
0.0
 11
34.83172329727188
 21
272.5189318575039
 31
0.0
  0
LINE
  5
387
330
75
100
AcDbEntity
  8
Visible Narrow (ISO)
100
AcDbLine
 10
40.13502415617035
 20
252.18245427815
 30
0.0
 11
34.83172329727202
 21
255.2364221315929
 31
0.0
  0
LINE
  5
388
330
75
100
AcDbEntity
  8
Visible (ISO)
100
AcDbLine
 10
40.13502415617035
 20
252.18245427815
 30
0.0
 11
40.13502415617023
 21
254.6060450100478
 31
0.0
  0
LINE
  5
389
330
75
100
AcDbEntity
  8
Visible (ISO)
100
AcDbLine
 10
67.71218862244158
 20
238.7254121721444
 30
0.0
 11
69.12640218481445
 21
237.9110207445596
 31
0.0
  0
LINE
  5
38A
330
75
100
AcDbEntity
  8
Visible (ISO)
100
AcDbLine
 10
69.12640218481444
 20
235.4874300126618
 30
0.0
 11
69.12640218481445
 21
237.9110207445596
 31
0.0
  0
LINE
  5
38B
330
75
100
AcDbEntity
  8
Visible Narrow (ISO)
100
AcDbLine
 10
74.42970304371279
 20
232.4334621592188
 30
0.0
 11
69.12640218481444
 21
235.4874300126618
 31
0.0
  0
LINE
  5
38C
330
75
100
AcDbEntity
  8
Visible (ISO)
100
AcDbLine
 10
74.42970304371279
 20
232.4334621592188
 30
0.0
 11
74.42970304371279
 21
234.8570528911167
 31
0.0
  0
LINE
  5
38D
330
75
100
AcDbEntity
  8
Visible (ISO)
100
AcDbLine
 10
74.42970304371279
 20
234.8570528911167
 30
0.0
 11
75.84391660608568
 21
234.0426614635319
 31
0.0
  0
LINE
  5
38E
330
75
100
AcDbEntity
  8
Visible (ISO)
100
AcDbLine
 10
75.84391660608568
 20
234.0426614635319
 30
0.0
 11
75.84391660608568
 21
231.2741202301296
 31
0.0
  0
LINE
  5
38F
330
75
100
AcDbEntity
  8
Visible (ISO)
100
AcDbLine
 10
75.84391660608568
 20
219.7261196870142
 30
0.0
 11
75.84391660608568
 21
213.1952097800471
 31
0.0
  0
LINE
  5
390
330
75
100
AcDbEntity
  8
Visible (ISO)
100
AcDbLine
 10
75.84391660608568
 20
213.1952097800471
 30
0.0
 11
67.7121886224414
 21
217.8779604886598
 31
0.0
  0
LINE
  5
391
330
75
100
AcDbEntity
  8
Visible (ISO)
100
AcDbLine
 10
67.7121886224414
 20
217.8779604886598
 30
0.0
 11
67.71218862244158
 21
238.7254121721444
 31
0.0
  0
LINE
  5
392
330
75
100
AcDbEntity
  8
Visible (ISO)
100
AcDbLine
 10
67.71218862244158
 20
195.4362919117319
 30
0.0
 11
75.84391660608568
 21
190.7535412031194
 31
0.0
  0
LINE
  5
393
330
75
100
AcDbEntity
  8
Visible (ISO)
100
AcDbLine
 10
75.84391660608568
 20
190.7535412031194
 30
0.0
 11
75.84391660608568
 21
190.3305670030382
 31
0.0
  0
LINE
  5
394
330
75
100
AcDbEntity
  8
Visible (ISO)
100
AcDbLine
 10
75.84391660608568
 20
175.9321964633751
 30
0.0
 11
75.84391660608568
 21
169.9060895196346
 31
0.0
  0
LINE
  5
395
330
75
100
AcDbEntity
  8
Visible (ISO)
100
AcDbLine
 10
75.84391660608568
 20
169.9060895196346
 30
0.0
 11
74.42970304371279
 21
170.7204809472194
 31
0.0
  0
LINE
  5
396
330
75
100
AcDbEntity
  8
Visible (ISO)
100
AcDbLine
 10
74.42970304371279
 20
173.1440716791173
 30
0.0
 11
74.42970304371279
 21
170.7204809472194
 31
0.0
  0
LINE
  5
397
330
75
100
AcDbEntity
  8
Visible Narrow (ISO)
100
AcDbLine
 10
74.42970304371279
 20
173.1440716791173
 30
0.0
 11
69.12640218481444
 21
176.1980395325602
 31
0.0
  0
LINE
  5
398
330
75
100
AcDbEntity
  8
Visible (ISO)
100
AcDbLine
 10
69.12640218481444
 20
176.1980395325602
 30
0.0
 11
69.12640218481446
 21
173.7744488006624
 31
0.0
  0
LINE
  5
399
330
75
100
AcDbEntity
  8
Visible (ISO)
100
AcDbLine
 10
69.12640218481446
 20
173.7744488006624
 30
0.0
 11
67.7121886224414
 21
174.5888402282473
 31
0.0
  0
LINE
  5
39A
330
75
100
AcDbEntity
  8
Visible (ISO)
100
AcDbLine
 10
67.7121886224414
 20
174.5888402282473
 30
0.0
 11
67.71218862244158
 21
195.4362919117319
 31
0.0
  0
LINE
  5
39B
330
75
100
AcDbEntity
  8
Visible (ISO)
100
AcDbLine
 10
40.48857754676314
 20
253.1808600117745
 30
0.0
 11
40.48857754676314
 21
251.6386394656362
 31
0.0
  0
LINE
  5
39C
330
75
100
AcDbEntity
  8
Visible (ISO)
100
AcDbLine
 10
40.48857754676314
 20
240.0859053766343
 30
0.0
 11
40.48857754676314
 21
210.6903526926582
 31
0.0
  0
LINE
  5
39D
330
75
100
AcDbEntity
  8
Visible (ISO)
100
AcDbLine
 10
40.48857754676314
 20
193.8440743243538
 30
0.0
 11
40.48857754676314
 21
190.2658752092545
 31
0.0
  0
LINE
  5
39E
330
75
100
AcDbEntity
  8
Visible (ISO)
100
AcDbLine
 10
40.1350241561703
 20
253.3844578686705
 30
0.0
 11
40.48857754676314
 21
253.1808600117745
 31
0.0
  0
LINE
  5
39F
330
75
100
AcDbEntity
  8
Visible (ISO)
100
AcDbLine
 10
33.77106312549206
 20
254.6256285609045
 30
0.0
 11
33.7710631254919
 21
271.9081382868155
 31
0.0
  0
LINE
  5
3A0
330
75
100
AcDbEntity
  8
Visible (ISO)
100
AcDbLine
 10
33.77106312549188
 20
177.8902189299234
 30
0.0
 11
76.55102338727163
 21
153.2548782454835
 31
0.0
  0
LINE
  5
3A1
330
75
100
AcDbEntity
  8
Visible (ISO)
100
AcDbLine
 10
33.77106312549188
 20
177.8902189299234
 30
0.0
 11
33.77106312549206
 21
195.336238080803
 31
0.0
  0
LINE
  5
3A2
330
75
100
AcDbEntity
  8
Visible (ISO)
100
AcDbLine
 10
74.78325643430571
 20
174.0950822054229
 30
0.0
 11
74.78325643430571
 21
170.5168830903234
 31
0.0
  0
LINE
  5
3A3
330
75
100
AcDbEntity
  8
Visible (ISO)
100
AcDbLine
 10
67.71218862244153
 20
194.2147047703548
 30
0.0
 11
71.61497581102669
 21
191.9672391013518
 31
0.0
  0
LINE
  5
3A4
330
75
100
AcDbEntity
  8
Visible (ISO)
100
AcDbLine
 10
68.06574201303448
 20
174.3852423713511
 30
0.0
 11
68.06574201303448
 21
175.5872459618719
 31
0.0
  0
LINE
  5
3A5
330
75
100
AcDbEntity
  8
Visible (ISO)
100
AcDbLine
 10
74.78325643430571
 20
233.4318678928435
 30
0.0
 11
74.78325643430571
 21
231.889647346705
 31
0.0
  0
LINE
  5
3A6
330
75
100
AcDbEntity
  8
Visible (ISO)
100
AcDbLine
 10
74.78325643430571
 20
220.3369132577031
 30
0.0
 11
74.78325643430571
 21
213.8060033507359
 31
0.0
  0
LINE
  5
3A7
330
75
100
AcDbEntity
  8
Visible (ISO)
100
AcDbLine
 10
74.42970304371278
 20
233.6354657497395
 30
0.0
 11
74.78325643430571
 21
233.4318678928435
 31
0.0
  0
LINE
  5
3A8
330
75
100
AcDbEntity
  8
Visible (ISO)
100
AcDbLine
 10
68.06574201303449
 20
237.3002271738713
 30
0.0
 11
68.06574201303448
 21
234.8766364419734
 31
0.0
  0
LINE
  5
3A9
330
75
100
AcDbEntity
  8
Visible (ISO)
100
AcDbLine
 10
67.71218862244153
 20
237.5038250307673
 30
0.0
 11
68.06574201303449
 21
237.3002271738713
 31
0.0
  0
LINE
  5
3AA
330
75
100
AcDbEntity
  8
Visible (ISO)
100
AcDbLine
 10
33.77106312549188
 20
177.8902189299234
 30
0.0
 11
34.83172329727186
 21
178.5010125006118
 31
0.0
  0
LINE
  5
3AB
330
75
100
AcDbEntity
  8
Visible (ISO)
100
AcDbLine
 10
34.83172329727188
 20
272.5189318575039
 30
0.0
 11
33.7710631254919
 21
271.9081382868155
 31
0.0
  0
ELLIPSE
  5
3AC
330
75
100
AcDbEntity
  8
Visible (ISO)
100
AcDbEllipse
 10
35.53883007845865
 20
255.6436178453853
 30
0.0
 11
-0.4990322115844071
 21
-0.8665834361451782
 31
0.0
210
0.0
220
0.0
230
1.0
 40
0.5780931159158106
 41
5.495853435359256
 42
6.281251598756745
  0
LINE
  5
3AD
330
75
100
AcDbEntity
  8
Visible Narrow (ISO)
100
AcDbLine
 10
40.34213093735695
 20
251.7236260255339
 30
0.0
 11
35.03883007845861
 21
254.7775938789769
 31
0.0
  0
ELLIPSE
  5
3AE
330
75
100
AcDbEntity
  8
Visible (ISO)
100
AcDbEllipse
 10
40.84213093735704
 20
252.5896499919423
 30
0.0
 11
-0.4990322115844305
 21
-0.8665834361452191
 31
0.0
210
0.0
220
0.0
230
0.9999999999999998
 40
0.5780931159158108
 41
5.495853435359318
 42
6.281251598756766
  0
LINE
  5
3AF
330
75
100
AcDbEntity
  8
Visible (ISO)
100
AcDbLine
 10
41.5492377185431
 20
253.791653582463
 30
0.0
 11
40.48857754676314
 21
253.1808600117745
 31
0.0
  0
LINE
  5
3B0
330
75
100
AcDbEntity
  8
Visible (ISO)
100
AcDbLine
 10
75.84391660608568
 20
190.7535412031194
 30
0.0
 11
75.47666332343339
 21
190.5420541030789
 31
0.0
  0
ELLIPSE
  5
3B1
330
75
100
AcDbEntity
  8
Visible (ISO)
100
AcDbEllipse
 10
75.13680982489947
 20
232.8406578730112
 30
0.0
 11
-0.4990322115844431
 21
-0.8665834361452407
 31
0.0
210
0.0
220
0.0
230
1.0
 40
0.5780931159158106
 41
5.495853435359349
 42
6.281251598756695
  0
LINE
  5
3B2
330
75
100
AcDbEntity
  8
Visible (ISO)
100
AcDbLine
 10
77.09391660608628
 20
230.5487145665717
 30
0.0
 11
74.63680982489936
 21
231.9746339066028
 31
0.0
  0
ELLIPSE
  5
3B3
330
75
100
AcDbEntity
  8
Visible (ISO)
100
AcDbEllipse
 10
75.84391660608611
 20
228.3836546505508
 30
0.0
 11
1.247580528961003
 21
2.16645859036292
 31
0.0
210
0.0
220
0.0
230
0.9999999999999998
 40
0.5780931159158106
 41
5.495853435359241
 42
6.281251598756696
  0
LINE
  5
3B4
330
75
100
AcDbEntity
  8
Visible (ISO)
100
AcDbLine
 10
77.61168355905272
 20
219.9297175439099
 30
0.0
 11
77.61168355905272
 21
229.4016439350315
 31
0.0
  0
LINE
  5
3B5
330
75
100
AcDbEntity
  8
Visible (ISO)
100
AcDbLine
 10
76.55102338727276
 20
219.3189239732215
 30
0.0
 11
77.61168355905272
 21
219.9297175439099
 31
0.0
  0
LINE
  5
3B6
330
75
100
AcDbEntity
  8
Visible Narrow (ISO)
100
AcDbLine
 10
74.63680982489936
 20
173.8414296583327
 30
0.0
 11
69.33350896600103
 21
176.8953975117756
 31
0.0
  0
ELLIPSE
  5
3B7
330
75
100
AcDbEntity
  8
Visible (ISO)
100
AcDbEllipse
 10
69.83350896600111
 20
176.6052352463525
 30
0.0
 11
-0.499032211584415
 21
-0.8665834361451917
 31
0.0
210
0.0
220
0.0
230
1.0
 40
0.5780931159158106
 41
4.710455271961771
 42
5.495853435359244
  0
ELLIPSE
  5
3B8
330
75
100
AcDbEntity
  8
Visible (ISO)
100
AcDbEllipse
 10
75.13680982489947
 20
173.5512673929096
 30
0.0
 11
-0.4990322115844431
 21
-0.8665834361452407
 31
0.0
210
0.0
220
0.0
230
1.0
 40
0.5780931159158108
 41
4.710455271961798
 42
5.495853435359175
  0
ELLIPSE
  5
3B9
330
75
100
AcDbEntity
  8
Visible (ISO)
100
AcDbEllipse
 10
35.53883007845867
 20
255.6436178453853
 30
0.0
 11
-1.247580528961027
 21
-2.166458590362963
 31
0.0
210
0.0
220
0.0
230
1.0
 40
0.5780931159158107
 41
5.495853435359285
 42
6.281251598756731
  0
LINE
  5
3BA
330
75
100
AcDbEntity
  8
Visible (ISO)
100
AcDbLine
 10
34.28883007845851
 20
253.4785579293644
 30
0.0
 11
36.7459368596454
 21
252.0526385893332
 31
0.0
  0
ELLIPSE
  5
3BB
330
75
100
AcDbEntity
  8
Visible (ISO)
100
AcDbEllipse
 10
36.24593685964533
 20
251.1866146229249
 30
0.0
 11
0.4990322115843961
 21
0.8665834361451592
 31
0.0
210
0.0
220
0.0
230
1.0
 40
0.5780931159158106
 41
5.495853435359222
 42
6.281251598756674
  0
LINE
  5
3BC
330
75
100
AcDbEntity
  8
Visible (ISO)
100
AcDbLine
 10
36.95304364083196
 20
251.5938103367171
 30
0.0
 11
36.95304364083199
 21
242.1218839455956
 31
0.0
  0
LINE
  5
3BD
330
75
100
AcDbEntity
  8
Visible (ISO)
100
AcDbLine
 10
36.95304364083199
 20
242.1218839455956
 30
0.0
 11
38.01370381261195
 21
242.732677516284
 31
0.0
  0
LINE
  5
3BE
330
75
100
AcDbEntity
  8
Visible (ISO)
100
AcDbLine
 10
38.01370381261195
 20
242.732677516284
 30
0.0
 11
38.01370381261193
 21
252.2046039074056
 31
0.0
  0
ELLIPSE
  5
3BF
330
75
100
AcDbEntity
  8
Visible (ISO)
100
AcDbEllipse
 10
36.24593685964534
 20
251.1866146229249
 30
0.0
 11
1.247580528960994
 21
2.166458590362906
 31
0.0
210
0.0
220
0.0
230
1.0
 40
0.5780931159158106
 41
5.495853435359246
 42
6.281251598756717
  0
LINE
  5
3C0
330
75
100
AcDbEntity
  8
Visible (ISO)
100
AcDbLine
 10
37.49593685964551
 20
253.3516745389458
 30
0.0
 11
35.03883007845861
 21
254.7775938789769
 31
0.0
  0
LINE
  5
3C1
330
75
100
AcDbEntity
  8
Visible (ISO)
100
AcDbLine
 10
69.12640218481445
 20
237.9110207445596
 30
0.0
 11
68.06574201303449
 21
237.3002271738713
 31
0.0
  0
LINE
  5
3C2
330
75
100
AcDbEntity
  8
Visible (ISO)
100
AcDbLine
 10
43.31700467151029
 20
209.0615698374878
 30
0.0
 11
43.31700467151026
 21
199.5896434463663
 31
0.0
  0
ELLIPSE
  5
3C3
330
75
100
AcDbEntity
  8
Visible (ISO)
100
AcDbEllipse
 10
41.54923771854366
 20
198.5716541618856
 30
0.0
 11
-1.247580528961139
 21
-2.166458590362858
 31
0.0
210
0.0
220
0.0
230
0.9999999999999998
 40
0.5780931159158107
 41
1.568862618372122
 42
2.354260781769722
  0
LINE
  5
3C4
330
75
100
AcDbEntity
  8
Visible (ISO)
100
AcDbLine
 10
42.79923771854384
 20
197.8462484983278
 30
0.0
 11
40.34213093735695
 21
193.5904217772639
 31
0.0
  0
ELLIPSE
  5
3C5
330
75
100
AcDbEntity
  8
Visible (ISO)
100
AcDbEllipse
 10
40.84213093735705
 20
193.3002595118407
 30
0.0
 11
-0.4990322115844385
 21
-0.8665834361452329
 31
0.0
210
0.0
220
0.0
230
0.9999999999999998
 40
0.5780931159158105
 41
4.710455271961789
 42
5.495853435359175
  0
LINE
  5
3C6
330
75
100
AcDbEntity
  8
Visible Narrow (ISO)
100
AcDbLine
 10
40.34213093735695
 20
193.5904217772639
 30
0.0
 11
35.03883007845861
 21
196.6443896307068
 31
0.0
  0
ELLIPSE
  5
3C7
330
75
100
AcDbEntity
  8
Visible (ISO)
100
AcDbEllipse
 10
35.53883007845867
 20
196.3542273652836
 30
0.0
 11
-0.4990322115844165
 21
-0.8665834361451945
 31
0.0
210
0.0
220
0.0
230
1.0
 40
0.5780931159158108
 41
4.710455271961738
 42
5.495853435359157
  0
LINE
  5
3C8
330
75
100
AcDbEntity
  8
Visible (ISO)
100
AcDbLine
 10
42.79923771854384
 20
250.2977066855028
 30
0.0
 11
40.34213093735695
 21
251.7236260255339
 31
0.0
  0
ELLIPSE
  5
3C9
330
75
100
AcDbEntity
  8
Visible (ISO)
100
AcDbEllipse
 10
41.54923771854369
 20
248.132646769482
 30
0.0
 11
1.247580528960992
 21
2.166458590362902
 31
0.0
210
0.0
220
0.0
230
1.0
 40
0.5780931159158105
 41
5.495853435359229
 42
6.281251598756696
  0
LINE
  5
3CA
330
75
100
AcDbEntity
  8
Visible (ISO)
100
AcDbLine
 10
43.31700467151029
 20
239.6787096628411
 30
0.0
 11
43.31700467151027
 21
249.1506360539626
 31
0.0
  0
LINE
  5
3CB
330
75
100
AcDbEntity
  8
Visible (ISO)
100
AcDbLine
 10
42.2563444997303
 20
239.0679160921527
 30
0.0
 11
43.31700467151029
 21
239.6787096628411
 31
0.0
  0
LINE
  5
3CC
330
75
100
AcDbEntity
  8
Visible (ISO)
100
AcDbLine
 10
75.84391660608568
 20
234.0426614635319
 30
0.0
 11
74.78325643430571
 21
233.4318678928435
 31
0.0
  0
LINE
  5
3CD
330
75
100
AcDbEntity
  8
Visible (ISO)
100
AcDbLine
 10
37.4959368596455
 20
200.9002163517708
 30
0.0
 11
35.03883007845861
 21
196.6443896307068
 31
0.0
  0
ELLIPSE
  5
3CE
330
75
100
AcDbEntity
  8
Visible (ISO)
100
AcDbEllipse
 10
36.24593685964533
 20
201.6256220153285
 30
0.0
 11
-1.247580528961135
 21
-2.16645859036285
 31
0.0
210
0.0
220
0.0
230
0.9999999999999998
 40
0.5780931159158105
 41
1.568862618372131
 42
2.354260781769708
  0
LINE
  5
3CF
330
75
100
AcDbEntity
  8
Visible (ISO)
100
AcDbLine
 10
38.01370381261195
 20
212.1155376909308
 30
0.0
 11
38.01370381261193
 21
202.6436112998093
 31
0.0
  0
LINE
  5
3D0
330
75
100
AcDbEntity
  8
Visible (ISO)
100
AcDbLine
 10
36.95304364083199
 20
211.5047441202424
 30
0.0
 11
38.01370381261195
 21
212.1155376909308
 31
0.0
  0
LINE
  5
3D1
330
75
100
AcDbEntity
  8
Visible (ISO)
100
AcDbLine
 10
36.95304364083196
 20
202.0328177291208
 30
0.0
 11
36.95304364083199
 21
211.5047441202424
 31
0.0
  0
ELLIPSE
  5
3D2
330
75
100
AcDbEntity
  8
Visible (ISO)
100
AcDbEllipse
 10
36.24593685964531
 20
201.6256220153285
 30
0.0
 11
0.499032211584404
 21
0.8665834361451725
 31
0.0
210
0.0
220
0.0
230
1.0
 40
0.5780931159158107
 41
4.710455271961851
 42
5.495853435359303
  0
LINE
  5
3D3
330
75
100
AcDbEntity
  8
Visible (ISO)
100
AcDbLine
 10
34.28883007845851
 20
197.0796330288415
 30
0.0
 11
36.7459368596454
 21
201.3354597499055
 31
0.0
  0
ELLIPSE
  5
3D4
330
75
100
AcDbEntity
  8
Visible (ISO)
100
AcDbEllipse
 10
35.53883007845869
 20
196.3542273652837
 30
0.0
 11
1.247580528961164
 21
2.166458590362899
 31
0.0
210
0.0
220
0.0
230
1.0
 40
0.5780931159158107
 41
1.568862618372106
 42
2.35426078176966
  0
ELLIPSE
  5
3D5
330
75
100
AcDbEntity
  8
Visible (ISO)
100
AcDbEllipse
 10
69.83350896600112
 20
235.8946257264541
 30
0.0
 11
-0.4990322115844181
 21
-0.8665834361451972
 31
0.0
210
0.0
220
0.0
230
1.0
 40
0.5780931159158107
 41
5.495853435359286
 42
6.281251598756749
  0
LINE
  5
3D6
330
75
100
AcDbEntity
  8
Visible Narrow (ISO)
100
AcDbLine
 10
74.63680982489936
 20
231.9746339066028
 30
0.0
 11
69.33350896600103
 21
235.0286017600457
 31
0.0
  0
ELLIPSE
  5
3D7
330
75
100
AcDbEntity
  8
Visible (ISO)
100
AcDbEllipse
 10
69.83350896600114
 20
235.8946257264542
 30
0.0
 11
-1.247580528961049
 21
-2.166458590363001
 31
0.0
210
0.0
220
0.0
230
1.0
 40
0.5780931159158106
 41
5.495853435359276
 42
6.281251598756719
  0
LINE
  5
3D8
330
75
100
AcDbEntity
  8
Visible (ISO)
100
AcDbLine
 10
68.58350896600095
 20
233.7295658104332
 30
0.0
 11
71.04061574718783
 21
232.3036464704021
 31
0.0
  0
ELLIPSE
  5
3D9
330
75
100
AcDbEntity
  8
Visible (ISO)
100
AcDbEllipse
 10
70.54061574718776
 20
231.4376225039938
 30
0.0
 11
0.4990322115844008
 21
0.8665834361451675
 31
0.0
210
0.0
220
0.0
230
0.9999999999999998
 40
0.5780931159158107
 41
5.495853435359219
 42
6.281251598756647
  0
LINE
  5
3DA
330
75
100
AcDbEntity
  8
Visible (ISO)
100
AcDbLine
 10
71.24772252837441
 20
231.844818217786
 30
0.0
 11
71.24772252837442
 21
222.3728918266645
 31
0.0
  0
LINE
  5
3DB
330
75
100
AcDbEntity
  8
Visible (ISO)
100
AcDbLine
 10
71.24772252837442
 20
222.3728918266645
 30
0.0
 11
72.30838270015439
 21
222.9836853973529
 31
0.0
  0
LINE
  5
3DC
330
75
100
AcDbEntity
  8
Visible (ISO)
100
AcDbLine
 10
72.30838270015439
 20
222.9836853973529
 30
0.0
 11
72.30838270015438
 21
232.4556117884744
 31
0.0
  0
ELLIPSE
  5
3DD
330
75
100
AcDbEntity
  8
Visible (ISO)
100
AcDbEllipse
 10
70.54061574718776
 20
231.4376225039938
 30
0.0
 11
1.247580528961001
 21
2.166458590362918
 31
0.0
210
0.0
220
0.0
230
1.0
 40
0.5780931159158104
 41
5.495853435359226
 42
6.281251598756679
  0
LINE
  5
3DE
330
75
100
AcDbEntity
  8
Visible (ISO)
100
AcDbLine
 10
71.79061574718794
 20
233.6026824200146
 30
0.0
 11
69.33350896600103
 21
235.0286017600457
 31
0.0
  0
LINE
  5
3DF
330
75
100
AcDbEntity
  8
Visible (ISO)
100
AcDbLine
 10
71.79061574718794
 20
181.1512242328396
 30
0.0
 11
69.33350896600103
 21
176.8953975117756
 31
0.0
  0
ELLIPSE
  5
3E0
330
75
100
AcDbEntity
  8
Visible (ISO)
100
AcDbEllipse
 10
70.54061574718776
 20
181.8766298963973
 30
0.0
 11
-1.247580528961135
 21
-2.16645859036285
 31
0.0
210
0.0
220
0.0
230
0.9999999999999998
 40
0.5780931159158106
 41
1.568862618372129
 42
2.354260781769706
  0
LINE
  5
3E1
330
75
100
AcDbEntity
  8
Visible (ISO)
100
AcDbLine
 10
72.30838270015439
 20
192.3665455719997
 30
0.0
 11
72.30838270015438
 21
182.8946191808781
 31
0.0
  0
LINE
  5
3E2
330
75
100
AcDbEntity
  8
Visible (ISO)
100
AcDbLine
 10
71.24772252837442
 20
191.7557520013113
 30
0.0
 11
72.30838270015439
 21
192.3665455719997
 31
0.0
  0
LINE
  5
3E3
330
75
100
AcDbEntity
  8
Visible (ISO)
100
AcDbLine
 10
71.24772252837439
 20
182.2838256101897
 30
0.0
 11
71.24772252837442
 21
191.7557520013113
 31
0.0
  0
ELLIPSE
  5
3E4
330
75
100
AcDbEntity
  8
Visible (ISO)
100
AcDbEllipse
 10
70.54061574718776
 20
181.8766298963974
 30
0.0
 11
0.4990322115843961
 21
0.8665834361451592
 31
0.0
210
0.0
220
0.0
230
1.0
 40
0.5780931159158106
 41
4.710455271961841
 42
5.495853435359312
  0
LINE
  5
3E5
330
75
100
AcDbEntity
  8
Visible (ISO)
100
AcDbLine
 10
68.58350896600095
 20
177.3306409099103
 30
0.0
 11
71.04061574718783
 21
181.5864676309743
 31
0.0
  0
ELLIPSE
  5
3E6
330
75
100
AcDbEntity
  8
Visible (ISO)
100
AcDbEllipse
 10
69.83350896600112
 20
176.6052352463525
 30
0.0
 11
1.247580528961157
 21
2.166458590362888
 31
0.0
210
0.0
220
0.0
230
0.9999999999999998
 40
0.5780931159158106
 41
1.568862618372104
 42
2.354260781769681
  0
LINE
  5
3E7
330
75
100
AcDbEntity
  8
Visible (ISO)
100
AcDbLine
 10
77.61168355905272
 20
189.3125777185567
 30
0.0
 11
77.61168355905271
 21
179.8406513274352
 31
0.0
  0
ELLIPSE
  5
3E8
330
75
100
AcDbEntity
  8
Visible (ISO)
100
AcDbEllipse
 10
75.84391660608608
 20
178.8226620429544
 30
0.0
 11
-1.247580528961145
 21
-2.16645859036287
 31
0.0
210
0.0
220
0.0
230
1.0
 40
0.5780931159158108
 41
1.568862618372122
 42
2.354260781769719
  0
LINE
  5
3E9
330
75
100
AcDbEntity
  8
Visible (ISO)
100
AcDbLine
 10
77.09391660608628
 20
178.0972563793966
 30
0.0
 11
74.63680982489936
 21
173.8414296583327
 31
0.0
  0
LINE
  5
3EA
330
75
100
AcDbEntity
  8
Visible Narrow (ISO)
100
AcDbLine
 10
42.79923771854384
 20
250.2977066855028
 30
0.0
 11
37.49593685964551
 21
253.3516745389458
 31
0.0
  0
LINE
  5
3EB
330
75
100
AcDbEntity
  8
Visible Narrow (ISO)
100
AcDbLine
 10
77.09391660608628
 20
230.5487145665717
 30
0.0
 11
71.79061574718794
 21
233.6026824200146
 31
0.0
  0
LINE
  5
3EC
330
75
100
AcDbEntity
  8
Visible Narrow (ISO)
100
AcDbLine
 10
77.61168355905272
 20
229.4016439350315
 30
0.0
 11
72.30838270015438
 21
232.4556117884744
 31
0.0
  0
LINE
  5
3ED
330
75
100
AcDbEntity
  8
Visible (ISO)
100
AcDbLine
 10
76.55102338727276
 20
219.3189239732215
 30
0.0
 11
71.24772252837442
 21
222.3728918266645
 31
0.0
  0
LINE
  5
3EE
330
75
100
AcDbEntity
  8
Visible (ISO)
100
AcDbLine
 10
77.61168355905272
 20
219.9297175439099
 30
0.0
 11
72.30838270015439
 21
222.9836853973529
 31
0.0
  0
ELLIPSE
  5
3EF
330
75
100
AcDbEntity
  8
Visible Narrow (ISO)
100
AcDbEllipse
 10
74.96003312960356
 20
226.0145266916286
 30
0.0
 11
-1.522048245331597
 21
2.643079480243263
 31
0.0
210
0.0
220
0.0
230
0.9999999999999998
 40
0.5780931159156389
 41
0.0
 42
6.283185307179586
  0
LINE
  5
3F0
330
75
100
AcDbEntity
  8
Visible Narrow (ISO)
100
AcDbLine
 10
77.09391660608628
 20
178.0972563793966
 30
0.0
 11
71.79061574718794
 21
181.1512242328396
 31
0.0
  0
LINE
  5
3F1
330
75
100
AcDbEntity
  8
Visible Narrow (ISO)
100
AcDbLine
 10
43.31700467151027
 20
249.1506360539626
 30
0.0
 11
38.01370381261193
 21
252.2046039074056
 31
0.0
  0
LINE
  5
3F2
330
75
100
AcDbEntity
  8
Visible (ISO)
100
AcDbLine
 10
43.31700467151029
 20
239.6787096628411
 30
0.0
 11
38.01370381261195
 21
242.732677516284
 31
0.0
  0
ELLIPSE
  5
3F3
330
75
100
AcDbEntity
  8
Visible Narrow (ISO)
100
AcDbEllipse
 10
40.66535424206111
 20
245.7635188105597
 30
0.0
 11
-1.522048245331595
 21
2.643079480243262
 31
0.0
210
0.0
220
0.0
230
0.9999999999999998
 40
0.5780931159156389
 41
0.0
 42
6.283185307179586
  0
LINE
  5
3F4
330
75
100
AcDbEntity
  8
Visible (ISO)
100
AcDbLine
 10
42.2563444997303
 20
239.0679160921527
 30
0.0
 11
36.95304364083199
 21
242.1218839455956
 31
0.0
  0
LINE
  5
3F5
330
75
100
AcDbEntity
  8
Visible (ISO)
100
AcDbLine
 10
43.31700467151029
 20
209.0615698374878
 30
0.0
 11
38.01370381261195
 21
212.1155376909308
 31
0.0
  0
LINE
  5
3F6
330
75
100
AcDbEntity
  8
Visible Narrow (ISO)
100
AcDbLine
 10
43.31700467151026
 20
199.5896434463663
 30
0.0
 11
38.01370381261193
 21
202.6436112998093
 31
0.0
  0
ELLIPSE
  5
3F7
330
75
100
AcDbEntity
  8
Visible Narrow (ISO)
100
AcDbEllipse
 10
40.6653542420611
 20
206.0307285432122
 30
0.0
 11
-1.522048245331595
 21
2.643079480243262
 31
0.0
210
0.0
220
0.0
230
0.9999999999999998
 40
0.5780931159156389
 41
0.0
 42
6.283185307179586
  0
LINE
  5
3F8
330
75
100
AcDbEntity
  8
Visible Narrow (ISO)
100
AcDbLine
 10
42.79923771854384
 20
197.8462484983278
 30
0.0
 11
37.4959368596455
 21
200.9002163517708
 31
0.0
  0
LINE
  5
3F9
330
75
100
AcDbEntity
  8
Visible (ISO)
100
AcDbLine
 10
77.61168355905272
 20
189.3125777185567
 30
0.0
 11
72.30838270015439
 21
192.3665455719997
 31
0.0
  0
LINE
  5
3FA
330
75
100
AcDbEntity
  8
Visible Narrow (ISO)
100
AcDbLine
 10
77.61168355905271
 20
179.8406513274352
 30
0.0
 11
72.30838270015438
 21
182.8946191808781
 31
0.0
  0
ELLIPSE
  5
3FB
330
75
100
AcDbEntity
  8
Visible Narrow (ISO)
100
AcDbEllipse
 10
74.96003312960356
 20
186.281736424281
 30
0.0
 11
-1.522048245331597
 21
2.643079480243263
 31
0.0
210
0.0
220
0.0
230
0.9999999999999998
 40
0.5780931159156389
 41
0.0
 42
6.283185307179586
  0
POLYLINE
  5
3FC
330
75
100
AcDbEntity
  8
Visible (ISO)
100
AcDb2dPolyline
 66
     1
 10
0.0
 20
0.0
 30
0.0
 70
   128
  0
VERTEX
  5
3FD
330
3FC
100
AcDbEntity
  8
Visible (ISO)
100
AcDbVertex
100
AcDb2dVertex
 10
73.27403848059377
 20
226.8882539196511
 30
0.0
  0
VERTEX
  5
3FE
330
3FC
100
AcDbEntity
  8
Visible (ISO)
100
AcDbVertex
100
AcDb2dVertex
 10
73.26346552217637
 20
226.8542321759184
 30
0.0
  0
VERTEX
  5
400
330
3FC
100
AcDbEntity
  8
Visible (ISO)
100
AcDbVertex
100
AcDb2dVertex
 10
73.2472221267603
 20
226.7510227339138
 30
0.0
  0
VERTEX
  5
401
330
3FC
100
AcDbEntity
  8
Visible (ISO)
100
AcDbVertex
100
AcDb2dVertex
 10
73.24400379340803
 20
226.5853460903024
 30
0.0
  0
VERTEX
  5
402
330
3FC
100
AcDbEntity
  8
Visible (ISO)
100
AcDbVertex
100
AcDb2dVertex
 10
73.2657928711512
 20
226.3692903458288
 30
0.0
  0
VERTEX
  5
403
330
3FC
100
AcDbEntity
  8
Visible (ISO)
100
AcDbVertex
100
AcDb2dVertex
 10
73.31891644488827
 20
226.1166381394779
 30
0.0
  0
VERTEX
  5
404
330
3FC
100
AcDbEntity
  8
Visible (ISO)
100
AcDbVertex
100
AcDb2dVertex
 10
73.40531326965074
 20
225.8410797765577
 30
0.0
  0
VERTEX
  5
405
330
3FC
100
AcDbEntity
  8
Visible (ISO)
100
AcDbVertex
100
AcDb2dVertex
 10
73.52387404038582
 20
225.5555950059857
 30
0.0
  0
VERTEX
  5
406
330
3FC
100
AcDbEntity
  8
Visible (ISO)
100
AcDbVertex
100
AcDb2dVertex
 10
73.67133574808177
 20
225.2724137317596
 30
0.0
  0
VERTEX
  5
407
330
3FC
100
AcDbEntity
  8
Visible (ISO)
100
AcDbVertex
100
AcDb2dVertex
 10
73.84225807753283
 20
225.0027487941461
 30
0.0
  0
VERTEX
  5
408
330
3FC
100
AcDbEntity
  8
Visible (ISO)
100
AcDbVertex
100
AcDb2dVertex
 10
74.02963622251647
 20
224.7568864711881
 30
0.0
  0
VERTEX
  5
409
330
3FC
100
AcDbEntity
  8
Visible (ISO)
100
AcDbVertex
100
AcDb2dVertex
 10
74.2246395753327
 20
224.5438854012158
 30
0.0
  0
VERTEX
  5
40A
330
3FC
100
AcDbEntity
  8
Visible (ISO)
100
AcDbVertex
100
AcDb2dVertex
 10
74.41646927045605
 20
224.3710944455184
 30
0.0
  0
VERTEX
  5
40B
330
3FC
100
AcDbEntity
  8
Visible (ISO)
100
AcDbVertex
100
AcDb2dVertex
 10
74.59240876075383
 20
224.2438181358898
 30
0.0
  0
VERTEX
  5
40C
330
3FC
100
AcDbEntity
  8
Visible (ISO)
100
AcDbVertex
100
AcDb2dVertex
 10
74.7373138406191
 20
224.163444294413
 30
0.0
  0
VERTEX
  5
40D
330
3FC
100
AcDbEntity
  8
Visible (ISO)
100
AcDbVertex
100
AcDb2dVertex
 10
74.83473459507805
 20
224.1256793474221
 30
0.0
  0
VERTEX
  5
40E
330
3FC
100
AcDbEntity
  8
Visible (ISO)
100
AcDbVertex
100
AcDb2dVertex
 10
74.86946696999886
 20
224.1177476440168
 30
0.0
  0
SEQEND
  5
3FF
330
3FC
100
AcDbEntity
  8
Visible (ISO)
  0
POLYLINE
  5
40F
330
75
100
AcDbEntity
  8
Visible (ISO)
100
AcDb2dPolyline
 66
     1
 10
0.0
 20
0.0
 30
0.0
 70
   128
  0
VERTEX
  5
410
330
40F
100
AcDbEntity
  8
Visible (ISO)
100
AcDbVertex
100
AcDb2dVertex
 10
38.97935858152696
 20
246.6372466210804
 30
0.0
  0
VERTEX
  5
411
330
40F
100
AcDbEntity
  8
Visible (ISO)
100
AcDbVertex
100
AcDb2dVertex
 10
38.96878646604652
 20
246.6032243919325
 30
0.0
  0
VERTEX
  5
413
330
40F
100
AcDbEntity
  8
Visible (ISO)
100
AcDbVertex
100
AcDb2dVertex
 10
38.95254138475652
 20
246.5000159207582
 30
0.0
  0
VERTEX
  5
414
330
40F
100
AcDbEntity
  8
Visible (ISO)
100
AcDbVertex
100
AcDb2dVertex
 10
38.94932642315211
 20
246.3343373354863
 30
0.0
  0
VERTEX
  5
415
330
40F
100
AcDbEntity
  8
Visible (ISO)
100
AcDbVertex
100
AcDb2dVertex
 10
38.97111297208438
 20
246.1182830472581
 30
0.0
  0
VERTEX
  5
416
330
40F
100
AcDbEntity
  8
Visible (ISO)
100
AcDbVertex
100
AcDb2dVertex
 10
39.02423654582145
 20
245.8656308409072
 30
0.0
  0
VERTEX
  5
417
330
40F
100
AcDbEntity
  8
Visible (ISO)
100
AcDbVertex
100
AcDb2dVertex
 10
39.11063589939484
 20
245.5900710217417
 30
0.0
  0
VERTEX
  5
418
330
40F
100
AcDbEntity
  8
Visible (ISO)
100
AcDbVertex
100
AcDb2dVertex
 10
39.22919498425597
 20
245.3045872219999
 30
0.0
  0
VERTEX
  5
419
330
40F
100
AcDbEntity
  8
Visible (ISO)
100
AcDbVertex
100
AcDb2dVertex
 10
39.37665837782585
 20
245.0214049769436
 30
0.0
  0
VERTEX
  5
41A
330
40F
100
AcDbEntity
  8
Visible (ISO)
100
AcDbVertex
100
AcDb2dVertex
 10
39.54757902140297
 20
244.7517410101603
 30
0.0
  0
VERTEX
  5
41B
330
40F
100
AcDbEntity
  8
Visible (ISO)
100
AcDbVertex
100
AcDb2dVertex
 10
39.73495716638661
 20
244.5058786872023
 30
0.0
  0
VERTEX
  5
41C
330
40F
100
AcDbEntity
  8
Visible (ISO)
100
AcDbVertex
100
AcDb2dVertex
 10
39.92996220507679
 20
244.2928766463997
 30
0.0
  0
VERTEX
  5
41D
330
40F
100
AcDbEntity
  8
Visible (ISO)
100
AcDbVertex
100
AcDb2dVertex
 10
40.12178937138923
 20
244.1200871469476
 30
0.0
  0
VERTEX
  5
41E
330
40F
100
AcDbEntity
  8
Visible (ISO)
100
AcDbVertex
100
AcDb2dVertex
 10
40.297728861687
 20
243.9928108373191
 30
0.0
  0
VERTEX
  5
41F
330
40F
100
AcDbEntity
  8
Visible (ISO)
100
AcDbVertex
100
AcDb2dVertex
 10
40.44263647036318
 20
243.9124355395969
 30
0.0
  0
VERTEX
  5
420
330
40F
100
AcDbEntity
  8
Visible (ISO)
100
AcDbVertex
100
AcDb2dVertex
 10
40.54005469601122
 20
243.8746720488514
 30
0.0
  0
VERTEX
  5
421
330
40F
100
AcDbEntity
  8
Visible (ISO)
100
AcDbVertex
100
AcDb2dVertex
 10
40.57478875680598
 20
243.8667393746158
 30
0.0
  0
SEQEND
  5
412
330
40F
100
AcDbEntity
  8
Visible (ISO)
  0
POLYLINE
  5
422
330
75
100
AcDbEntity
  8
Visible (ISO)
100
AcDb2dPolyline
 66
     1
 10
0.0
 20
0.0
 30
0.0
 70
   128
  0
VERTEX
  5
423
330
422
100
AcDbEntity
  8
Visible (ISO)
100
AcDbVertex
100
AcDb2dVertex
 10
40.57478875680597
 20
204.1339480157252
 30
0.0
  0
VERTEX
  5
424
330
422
100
AcDbEntity
  8
Visible (ISO)
100
AcDbVertex
100
AcDb2dVertex
 10
40.54005806775911
 20
204.1418787483003
 30
0.0
  0
VERTEX
  5
426
330
422
100
AcDbEntity
  8
Visible (ISO)
100
AcDbVertex
100
AcDb2dVertex
 10
40.44263815623712
 20
204.1796334714786
 30
0.0
  0
VERTEX
  5
427
330
422
100
AcDbEntity
  8
Visible (ISO)
100
AcDbVertex
100
AcDb2dVertex
 10
40.29772548993912
 20
204.2600116892153
 30
0.0
  0
VERTEX
  5
428
330
422
100
AcDbEntity
  8
Visible (ISO)
100
AcDbVertex
100
AcDb2dVertex
 10
40.12179611488498
 20
204.3873016356097
 30
0.0
  0
VERTEX
  5
429
330
422
100
AcDbEntity
  8
Visible (ISO)
100
AcDbVertex
100
AcDb2dVertex
 10
39.92993860284162
 20
204.5600638540062
 30
0.0
  0
VERTEX
  5
42A
330
422
100
AcDbEntity
  8
Visible (ISO)
100
AcDbVertex
100
AcDb2dVertex
 10
39.73497233925208
 20
204.7730999942474
 30
0.0
  0
VERTEX
  5
42B
330
422
100
AcDbEntity
  8
Visible (ISO)
100
AcDbVertex
100
AcDb2dVertex
 10
39.54756553441145
 20
205.0189399053485
 30
0.0
  0
VERTEX
  5
42C
330
422
100
AcDbEntity
  8
Visible (ISO)
100
AcDbVertex
100
AcDb2dVertex
 10
39.37665500607798
 20
205.2886175088976
 30
0.0
  0
VERTEX
  5
42D
330
422
100
AcDbEntity
  8
Visible (ISO)
100
AcDbVertex
100
AcDb2dVertex
 10
39.22921184299536
 20
205.57180366737
 30
0.0
  0
VERTEX
  5
42E
330
422
100
AcDbEntity
  8
Visible (ISO)
100
AcDbVertex
100
AcDb2dVertex
 10
39.11061735478149
 20
205.8572728369443
 30
0.0
  0
VERTEX
  5
42F
330
422
100
AcDbEntity
  8
Visible (ISO)
100
AcDbVertex
100
AcDb2dVertex
 10
39.02427026330025
 20
206.1328453446169
 30
0.0
  0
VERTEX
  5
430
330
422
100
AcDbEntity
  8
Visible (ISO)
100
AcDbVertex
100
AcDb2dVertex
 10
38.97110622858861
 20
206.3854916883675
 30
0.0
  0
VERTEX
  5
431
330
422
100
AcDbEntity
  8
Visible (ISO)
100
AcDbVertex
100
AcDb2dVertex
 10
38.94933316664788
 20
206.60154792578
 30
0.0
  0
VERTEX
  5
432
330
422
100
AcDbEntity
  8
Visible (ISO)
100
AcDbVertex
100
AcDb2dVertex
 10
38.95255318587409
 20
206.7672177585322
 30
0.0
  0
VERTEX
  5
433
330
422
100
AcDbEntity
  8
Visible (ISO)
100
AcDbVertex
100
AcDb2dVertex
 10
38.96878646604652
 20
206.8704330330419
 30
0.0
  0
VERTEX
  5
434
330
422
100
AcDbEntity
  8
Visible (ISO)
100
AcDbVertex
100
AcDb2dVertex
 10
38.97935858152695
 20
206.9044552621898
 30
0.0
  0
SEQEND
  5
425
330
422
100
AcDbEntity
  8
Visible (ISO)
  0
POLYLINE
  5
435
330
75
100
AcDbEntity
  8
Visible (ISO)
100
AcDb2dPolyline
 66
     1
 10
0.0
 20
0.0
 30
0.0
 70
   128
  0
VERTEX
  5
436
330
435
100
AcDbEntity
  8
Visible (ISO)
100
AcDbVertex
100
AcDb2dVertex
 10
74.86946696999886
 20
184.3849562851262
 30
0.0
  0
VERTEX
  5
437
330
435
100
AcDbEntity
  8
Visible (ISO)
100
AcDbVertex
100
AcDb2dVertex
 10
74.83473543801501
 20
184.3928875031164
 30
0.0
  0
VERTEX
  5
439
330
435
100
AcDbEntity
  8
Visible (ISO)
100
AcDbVertex
100
AcDb2dVertex
 10
74.73731552649303
 20
184.4306422262947
 30
0.0
  0
VERTEX
  5
43A
330
435
100
AcDbEntity
  8
Visible (ISO)
100
AcDbVertex
100
AcDb2dVertex
 10
74.59240454606898
 20
184.5110194732012
 30
0.0
  0
VERTEX
  5
43B
330
435
100
AcDbEntity
  8
Visible (ISO)
100
AcDbVertex
100
AcDb2dVertex
 10
74.4164734851409
 20
184.6383103904258
 30
0.0
  0
VERTEX
  5
43C
330
435
100
AcDbEntity
  8
Visible (ISO)
100
AcDbVertex
100
AcDb2dVertex
 10
74.22461765897146
 20
184.8110716379921
 30
0.0
  0
VERTEX
  5
43D
330
435
100
AcDbEntity
  8
Visible (ISO)
100
AcDbVertex
100
AcDb2dVertex
 10
74.02965139538193
 20
185.0241077782332
 30
0.0
  0
VERTEX
  5
43E
330
435
100
AcDbEntity
  8
Visible (ISO)
100
AcDbVertex
100
AcDb2dVertex
 10
73.84224290466736
 20
185.2699486601645
 30
0.0
  0
VERTEX
  5
43F
330
435
100
AcDbEntity
  8
Visible (ISO)
100
AcDbVertex
100
AcDb2dVertex
 10
73.67133490514479
 20
185.5396248074683
 30
0.0
  0
VERTEX
  5
440
330
435
100
AcDbEntity
  8
Visible (ISO)
100
AcDbVertex
100
AcDb2dVertex
 10
73.52389174206219
 20
185.8228109659407
 30
0.0
  0
VERTEX
  5
441
330
435
100
AcDbEntity
  8
Visible (ISO)
100
AcDbVertex
100
AcDb2dVertex
 10
73.40529472503739
 20
186.1082815917604
 30
0.0
  0
VERTEX
  5
442
330
435
100
AcDbEntity
  8
Visible (ISO)
100
AcDbVertex
100
AcDb2dVertex
 10
73.31894763355617
 20
186.3838540994329
 30
0.0
  0
VERTEX
  5
443
330
435
100
AcDbEntity
  8
Visible (ISO)
100
AcDbVertex
100
AcDb2dVertex
 10
73.26578612765543
 20
186.6364989869382
 30
0.0
  0
VERTEX
  5
444
330
435
100
AcDbEntity
  8
Visible (ISO)
100
AcDbVertex
100
AcDb2dVertex
 10
73.24401306571471
 20
186.8525552243507
 30
0.0
  0
VERTEX
  5
445
330
435
100
AcDbEntity
  8
Visible (ISO)
100
AcDbVertex
100
AcDb2dVertex
 10
73.24723055613
 20
187.0182265133482
 30
0.0
  0
VERTEX
  5
446
330
435
100
AcDbEntity
  8
Visible (ISO)
100
AcDbVertex
100
AcDb2dVertex
 10
73.26346552217637
 20
187.1214408170277
 30
0.0
  0
VERTEX
  5
447
330
435
100
AcDbEntity
  8
Visible (ISO)
100
AcDbVertex
100
AcDb2dVertex
 10
73.27403848059377
 20
187.1554625607605
 30
0.0
  0
SEQEND
  5
438
330
435
100
AcDbEntity
  8
Visible (ISO)
  0
ELLIPSE
  5
448
330
75
100
AcDbEntity
  8
Visible (ISO)
100
AcDbEllipse
 10
500.7250317917192
 20
202.0186909438091
 30
0.0
 11
-0.8234031491138143
 21
-1.429862669639797
 31
0.0
210
0.0
220
0.0
230
0.9999999999999998
 40
0.578093115915639
 41
3.98003711955388
 42
5.44474084121509
  0
ELLIPSE
  5
449
330
75
100
AcDbEntity
  8
Visible (ISO)
100
AcDbEllipse
 10
499.4957149990019
 20
202.7266074031129
 30
0.0
 11
0.8234031491139006
 21
1.429862669639749
 31
0.0
210
0.0
220
0.0
230
1.0
 40
0.578093115915639
 41
0.0
 42
6.283185307179586
  0
ELLIPSE
  5
44A
330
75
100
AcDbEntity
  8
Visible (ISO)
100
AcDbEllipse
 10
535.0197106792616
 20
261.5004733300878
 30
0.0
 11
-0.8234031491138241
 21
-1.429862669639814
 31
0.0
210
0.0
220
0.0
230
1.0
 40
0.578093115915639
 41
3.98003711955388
 42
5.444740841215036
  0
ELLIPSE
  5
44B
330
75
100
AcDbEntity
  8
Visible (ISO)
100
AcDbEllipse
 10
533.7903938865443
 20
262.2083897893915
 30
0.0
 11
0.8234031491139006
 21
1.429862669639749
 31
0.0
210
0.0
220
0.0
230
1.0
 40
0.578093115915639
 41
0.0
 42
6.283185307179586
  0
ELLIPSE
  5
44C
330
75
100
AcDbEntity
  8
Visible (ISO)
100
AcDbEllipse
 10
500.7250317917192
 20
241.7514812111567
 30
0.0
 11
-0.823403149113815
 21
-1.429862669639797
 31
0.0
210
0.0
220
0.0
230
0.9999999999999998
 40
0.578093115915639
 41
3.98003711955388
 42
5.444740841215037
  0
ELLIPSE
  5
44D
330
75
100
AcDbEntity
  8
Visible (ISO)
100
AcDbEllipse
 10
499.4957149990019
 20
242.4593976704604
 30
0.0
 11
0.8234031491139006
 21
1.429862669639749
 31
0.0
210
0.0
220
0.0
230
1.0
 40
0.578093115915639
 41
0.0
 42
6.283185307179586
  0
ELLIPSE
  5
44E
330
75
100
AcDbEntity
  8
Visible (ISO)
100
AcDbEllipse
 10
533.7903938865444
 20
222.475599522044
 30
0.0
 11
0.8234031491139006
 21
1.429862669639749
 31
0.0
210
0.0
220
0.0
230
1.0
 40
0.578093115915639
 41
0.0
 42
6.283185307179586
  0
ELLIPSE
  5
44F
330
75
100
AcDbEntity
  8
Visible (ISO)
100
AcDbEllipse
 10
535.0197106792616
 20
221.7676830627403
 30
0.0
 11
-0.8234031491138241
 21
-1.429862669639814
 31
0.0
210
0.0
220
0.0
230
1.0
 40
0.578093115915639
 41
3.98003711955388
 42
5.444740841215036
  0
ELLIPSE
  5
450
330
75
100
AcDbEntity
  8
Visible (ISO)
100
AcDbEllipse
 10
500.3442431364259
 20
202.2379725465622
 30
0.0
 11
-1.122822476064417
 21
-1.949812731326924
 31
0.0
210
0.0
220
0.0
230
0.9999999999999998
 40
0.578093115915639
 41
0.0000000000000034
 42
1.37249542518995
  0
ELLIPSE
  5
451
330
75
100
AcDbEntity
  8
Visible (ISO)
100
AcDbEllipse
 10
499.4957149990019
 20
202.7266074031129
 30
0.0
 11
1.122822476064293
 21
1.949812731326997
 31
0.0
210
0.0
220
0.0
230
1.0
 40
0.578093115915639
 41
0.0
 42
6.283185307179586
  0
ELLIPSE
  5
452
330
75
100
AcDbEntity
  8
Visible (ISO)
100
AcDbEllipse
 10
500.3442431364259
 20
241.9707628139097
 30
0.0
 11
-1.122822476064407
 21
-1.949812731326928
 31
0.0
210
0.0
220
0.0
230
0.9999999999999998
 40
0.578093115915639
 41
0.0
 42
1.372495425189935
  0
ELLIPSE
  5
453
330
75
100
AcDbEntity
  8
Visible (ISO)
100
AcDbEllipse
 10
499.4957149990019
 20
242.4593976704604
 30
0.0
 11
1.122822476064409
 21
1.949812731326931
 31
0.0
210
0.0
220
0.0
230
1.0
 40
0.578093115915639
 41
0.0
 42
6.283185307179586
  0
ELLIPSE
  5
454
330
75
100
AcDbEntity
  8
Visible (ISO)
100
AcDbEllipse
 10
533.7903938865444
 20
222.475599522044
 30
0.0
 11
1.122822476064294
 21
1.949812731326999
 31
0.0
210
0.0
220
0.0
230
0.9999999999999998
 40
0.5780931159156389
 41
0.0
 42
6.283185307179586
  0
ELLIPSE
  5
455
330
75
100
AcDbEntity
  8
Visible (ISO)
100
AcDbEllipse
 10
534.6389220239684
 20
221.9869646654933
 30
0.0
 11
-1.122822476064418
 21
-1.949812731326917
 31
0.0
210
0.0
220
0.0
230
1.0
 40
0.578093115915639
 41
0.0000000000000001
 42
3.141592653589793
  0
ELLIPSE
  5
456
330
75
100
AcDbEntity
  8
Visible (ISO)
100
AcDbEllipse
 10
534.6389220239684
 20
261.7197549328408
 30
0.0
 11
1.122822476064393
 21
1.949812731326932
 31
0.0
210
0.0
220
0.0
230
0.9999999999999998
 40
0.578093115915639
 41
3.141592638688638
 42
6.28318530717958
  0
ELLIPSE
  5
457
330
75
100
AcDbEntity
  8
Visible (ISO)
100
AcDbEllipse
 10
533.7903938865443
 20
262.2083897893915
 30
0.0
 11
1.12282247606441
 21
1.949812731326932
 31
0.0
210
0.0
220
0.0
230
1.0
 40
0.5780931159156389
 41
0.0
 42
6.283185307179586
  0
LINE
  5
458
330
75
100
AcDbEntity
  8
Visible (ISO)
100
AcDbLine
 10
525.2697571732572
 20
149.4479216111783
 30
0.0
 11
525.2697571732574
 21
142.4987710500167
 31
0.0
  0
LINE
  5
459
330
75
100
AcDbEntity
  8
Visible (ISO)
100
AcDbLine
 10
525.2697571732574
 20
142.4987710500167
 30
0.0
 11
526.6839707356307
 21
140.0492853727471
 31
0.0
  0
LINE
  5
45A
330
75
100
AcDbEntity
  8
Visible (ISO)
100
AcDbLine
 10
526.6839707356307
 20
140.0492853727471
 30
0.0
 11
535.1692521098705
 21
135.1629368072399
 31
0.0
  0
LINE
  5
45B
330
75
100
AcDbEntity
  8
Visible (ISO)
100
AcDbLine
 10
535.1692521098705
 20
135.1629368072399
 30
0.0
 11
536.5834656722437
 21
135.9836396293404
 31
0.0
  0
LINE
  5
45C
330
75
100
AcDbEntity
  8
Visible (ISO)
100
AcDbLine
 10
536.5834656722437
 20
135.9836396293404
 30
0.0
 11
536.5834656722437
 21
216.1165775563115
 31
0.0
  0
LINE
  5
45D
330
75
100
AcDbEntity
  8
Visible (ISO)
100
AcDbLine
 10
536.5834656722437
 20
227.6645780994268
 30
0.0
 11
536.5834656722437
 21
251.2577842321384
 31
0.0
  0
LINE
  5
45E
330
75
100
AcDbEntity
  8
Visible (ISO)
100
AcDbLine
 10
536.5834656722437
 20
251.2577842321384
 30
0.0
 11
535.1692521098705
 21
253.7072699094081
 31
0.0
  0
LINE
  5
45F
330
75
100
AcDbEntity
  8
Visible (ISO)
100
AcDbLine
 10
535.1692521098705
 20
253.7072699094081
 30
0.0
 11
528.4517376885863
 21
257.5756291904411
 31
0.0
  0
LINE
  5
460
330
75
100
AcDbEntity
  8
Visible (ISO)
100
AcDbLine
 10
501.2692262890879
 20
273.2289964420041
 30
0.0
 11
496.2783791446045
 21
276.1030341679832
 31
0.0
  0
LINE
  5
461
330
75
100
AcDbEntity
  8
Visible (ISO)
100
AcDbLine
 10
496.2783791446045
 20
276.1030341679832
 30
0.0
 11
494.8641655822313
 21
275.2823313458827
 31
0.0
  0
LINE
  5
462
330
75
100
AcDbEntity
  8
Visible (ISO)
100
AcDbLine
 10
494.8641655822313
 20
275.2823313458827
 30
0.0
 11
494.8641655822313
 21
269.5405672884384
 31
0.0
  0
LINE
  5
463
330
75
100
AcDbEntity
  8
Visible Narrow (ISO)
100
AcDbLine
 10
492.389291848078
 20
172.0614843643105
 30
0.0
 11
492.389291848078
 21
172.8758757918951
 31
0.0
  0
LINE
  5
464
330
75
100
AcDbEntity
  8
Visible (ISO)
100
AcDbLine
 10
492.389291848078
 20
172.0614843643105
 30
0.0
 11
494.8641655822313
 21
170.6362993660375
 31
0.0
  0
LINE
  5
465
330
75
100
AcDbEntity
  8
Visible (ISO)
100
AcDbLine
 10
494.8641655822313
 20
170.6362993660375
 30
0.0
 11
494.8641655822313
 21
160.0081867430845
 31
0.0
  0
LINE
  5
466
330
75
100
AcDbEntity
  8
Visible (ISO)
100
AcDbLine
 10
494.8641655822313
 20
160.0081867430845
 30
0.0
 11
496.2783791446045
 21
157.5587010658149
 31
0.0
  0
LINE
  5
467
330
75
100
AcDbEntity
  8
Visible (ISO)
100
AcDbLine
 10
496.2783791446045
 20
157.5587010658149
 30
0.0
 11
504.7636605188444
 21
152.6723525003076
 31
0.0
  0
LINE
  5
468
330
75
100
AcDbEntity
  8
Visible (ISO)
100
AcDbLine
 10
504.7636605188444
 20
152.6723525003076
 30
0.0
 11
506.1778740812178
 21
153.4930553224081
 31
0.0
  0
LINE
  5
469
330
75
100
AcDbEntity
  8
Visible (ISO)
100
AcDbLine
 10
506.1778740812178
 20
153.4930553224081
 30
0.0
 11
506.1778740812178
 21
160.4422058835697
 31
0.0
  0
LINE
  5
46A
330
75
100
AcDbEntity
  8
Visible (ISO)
100
AcDbLine
 10
506.1778740812178
 20
160.4422058835697
 30
0.0
 11
525.2697571732572
 21
149.4479216111783
 31
0.0
  0
ELLIPSE
  5
46B
330
75
100
AcDbEntity
  8
Visible (ISO)
100
AcDbEllipse
 10
500.5210198317245
 20
159.3667718322425
 30
0.0
 11
1.29748375011932
 21
-2.253116933977535
 31
0.0
210
0.0
220
0.0
230
1.0
 40
0.5780931159158104
 41
0.0
 42
6.283185307179586
  0
ELLIPSE
  5
46C
330
75
100
AcDbEntity
  8
Visible (ISO)
100
AcDbEllipse
 10
530.9266114227504
 20
252.0627085679491
 30
0.0
 11
1.29748375011932
 21
-2.253116933977535
 31
0.0
210
0.0
220
0.0
230
1.0
 40
0.5780931159158104
 41
0.0
 42
6.283185307179586
  0
ELLIPSE
  5
46D
330
75
100
AcDbEntity
  8
Visible (ISO)
100
AcDbEllipse
 10
530.9266114227504
 20
141.6938467142062
 30
0.0
 11
1.29748375011932
 21
-2.253116933977535
 31
0.0
210
0.0
220
0.0
230
1.0
 40
0.5780931159158104
 41
0.0
 42
6.283185307179586
  0
LINE
  5
46E
330
75
100
AcDbEntity
  8
Visible (ISO)
100
AcDbLine
 10
528.0981842980041
 20
182.6711726880467
 30
0.0
 11
528.0981842980041
 21
184.1427575127633
 31
0.0
  0
LINE
  5
46F
330
75
100
AcDbEntity
  8
Visible (ISO)
100
AcDbLine
 10
528.0981842980041
 20
184.1427575127633
 30
0.0
 11
533.7550385474972
 21
180.8851918024251
 31
0.0
  0
LINE
  5
470
330
75
100
AcDbEntity
  8
Visible (ISO)
100
AcDbLine
 10
533.7550385474972
 20
180.8851918024251
 30
0.0
 11
533.7550385474972
 21
179.4136069777085
 31
0.0
  0
LINE
  5
471
330
75
100
AcDbEntity
  8
Visible (ISO)
100
AcDbLine
 10
533.7550385474972
 20
179.4136069777085
 30
0.0
 11
528.0981842980041
 21
182.6711726880467
 31
0.0
  0
ELLIPSE
  5
472
330
75
100
AcDbEntity
  8
Visible (ISO)
100
AcDbEllipse
 10
530.9266114227506
 20
216.8264274872356
 30
0.0
 11
0.6736934856388756
 21
-1.169887638796023
 31
0.0
210
0.0
220
0.0
230
1.0
 40
0.5780931159158104
 41
0.0
 42
6.283185307179586
  0
ELLIPSE
  5
473
330
75
100
AcDbEntity
  8
Visible (ISO)
100
AcDbEllipse
 10
530.9266114227506
 20
177.0936372198881
 30
0.0
 11
0.6736934856388772
 21
-1.169887638796026
 31
0.0
210
0.0
220
0.0
230
1.0
 40
0.5780931159158104
 41
0.0
 42
6.283185307179586
  0
LINE
  5
474
330
75
100
AcDbEntity
  8
Visible (ISO)
100
AcDbLine
 10
513.8146273180336
 20
178.2817739703302
 30
0.0
 11
516.9258971552549
 21
176.4901128296442
 31
0.0
  0
LINE
  5
475
330
75
100
AcDbEntity
  8
Visible (ISO)
100
AcDbLine
 10
513.8146273180336
 20
181.8789813196374
 30
0.0
 11
513.8146273180336
 21
178.2817739703302
 31
0.0
  0
LINE
  5
476
330
75
100
AcDbEntity
  8
Visible (ISO)
100
AcDbLine
 10
516.9258971552549
 20
180.0873201789514
 30
0.0
 11
513.8146273180336
 21
181.8789813196374
 31
0.0
  0
LINE
  5
477
330
75
100
AcDbEntity
  8
Visible (ISO)
100
AcDbLine
 10
516.9258971552549
 20
176.4901128296442
 30
0.0
 11
516.9258971552549
 21
180.0873201789514
 31
0.0
  0
LINE
  5
478
330
75
100
AcDbEntity
  8
Visible (ISO)
100
AcDbLine
 10
516.9258971552549
 20
181.7224144286365
 30
0.0
 11
516.9258971552549
 21
187.0055670604957
 31
0.0
  0
LINE
  5
479
330
75
100
AcDbEntity
  8
Visible (ISO)
100
AcDbLine
 10
513.8146273180336
 20
183.5140755693225
 30
0.0
 11
516.9258971552549
 21
181.7224144286365
 31
0.0
  0
LINE
  5
47A
330
75
100
AcDbEntity
  8
Visible (ISO)
100
AcDbLine
 10
513.8146273180336
 20
185.2139059198086
 30
0.0
 11
513.8146273180336
 21
183.5140755693225
 31
0.0
  0
LINE
  5
47B
330
75
100
AcDbEntity
  8
Visible (ISO)
100
AcDbLine
 10
525.6233105638509
 20
139.4384918020585
 30
0.0
 11
534.1085919380908
 21
134.5521432365512
 31
0.0
  0
LINE
  5
47C
330
75
100
AcDbEntity
  8
Visible (ISO)
100
AcDbLine
 10
525.6233105638509
 20
139.4384918020585
 30
0.0
 11
524.2090970014776
 21
141.8879774793282
 31
0.0
  0
LINE
  5
47D
330
75
100
AcDbEntity
  8
Visible (ISO)
100
AcDbLine
 10
524.2090970014776
 20
148.8371280404898
 30
0.0
 11
524.2090970014776
 21
141.8879774793282
 31
0.0
  0
LINE
  5
47E
330
75
100
AcDbEntity
  8
Visible (ISO)
100
AcDbLine
 10
506.1778740812178
 20
159.2206187421929
 30
0.0
 11
524.2090970014776
 21
148.8371280404898
 31
0.0
  0
LINE
  5
47F
330
75
100
AcDbEntity
  8
Visible (ISO)
100
AcDbLine
 10
495.2177189728248
 20
156.9479074951263
 30
0.0
 11
503.7030003470647
 21
152.061558929619
 31
0.0
  0
LINE
  5
480
330
75
100
AcDbEntity
  8
Visible (ISO)
100
AcDbLine
 10
495.2177189728248
 20
156.9479074951263
 30
0.0
 11
493.8035054104516
 21
159.3973931723959
 31
0.0
  0
LINE
  5
481
330
75
100
AcDbEntity
  8
Visible (ISO)
100
AcDbLine
 10
493.8035054104516
 20
170.0255057953489
 30
0.0
 11
493.8035054104516
 21
159.3973931723959
 31
0.0
  0
LINE
  5
482
330
75
100
AcDbEntity
  8
Visible (ISO)
100
AcDbLine
 10
491.3286316762984
 20
171.4506907936218
 30
0.0
 11
493.8035054104516
 21
170.0255057953489
 31
0.0
  0
LINE
  5
483
330
75
100
AcDbEntity
  8
Visible (ISO)
100
AcDbLine
 10
493.8035054104516
 20
274.671537775194
 30
0.0
 11
493.8035054104516
 21
268.9297737177498
 31
0.0
  0
LINE
  5
484
330
75
100
AcDbEntity
  8
Visible (ISO)
100
AcDbLine
 10
493.8035054104516
 20
274.671537775194
 30
0.0
 11
495.2177189728248
 21
275.4922405972946
 31
0.0
  0
ELLIPSE
  5
485
330
75
100
AcDbEntity
  8
Visible (ISO)
100
AcDbEllipse
 10
529.8659512509708
 20
251.4519149972605
 30
0.0
 11
1.297483750119317
 21
-2.253116933977529
 31
0.0
210
0.0
220
0.0
230
1.0
 40
0.5780931159158105
 41
0.4193421108859186
 42
2.722250542704653
  0
ELLIPSE
  5
486
330
75
100
AcDbEntity
  8
Visible (ISO)
100
AcDbEllipse
 10
529.8659512509708
 20
141.0830531435176
 30
0.0
 11
1.297483750119323
 21
-2.253116933977542
 31
0.0
210
0.0
220
0.0
230
1.0
 40
0.5780931159158104
 41
0.4193421108859435
 42
2.722250542704692
  0
LINE
  5
487
330
75
100
AcDbEntity
  8
Visible (ISO)
100
AcDbLine
 10
528.0981842980041
 20
182.9211703713864
 30
0.0
 11
532.6943783757176
 21
180.2743982317364
 31
0.0
  0
LINE
  5
488
330
75
100
AcDbEntity
  8
Visible (ISO)
100
AcDbLine
 10
532.6943783757176
 20
180.2743982317364
 30
0.0
 11
532.6943783757176
 21
180.0244005483967
 31
0.0
  0
ELLIPSE
  5
489
330
75
100
AcDbEntity
  8
Visible (ISO)
100
AcDbEllipse
 10
529.865951250971
 20
216.2156339165469
 30
0.0
 11
0.6736934856388723
 21
-1.169887638796018
 31
0.0
210
0.0
220
0.0
230
1.0
 40
0.5780931159158104
 41
0.9013402729253625
 42
2.240252380664751
  0
ELLIPSE
  5
48A
330
75
100
AcDbEntity
  8
Visible (ISO)
100
AcDbEllipse
 10
529.8659512509708
 20
176.4828436491995
 30
0.0
 11
0.6736934856388795
 21
-1.16988763879603
 31
0.0
210
0.0
220
0.0
230
1.0
 40
0.5780931159158105
 41
0.9013402729253909
 42
2.240252380664754
  0
LINE
  5
48B
330
75
100
AcDbEntity
  8
Visible (ISO)
100
AcDbLine
 10
515.8652369834751
 20
179.4765266082628
 30
0.0
 11
515.8652369834751
 21
177.1009064003325
 31
0.0
  0
LINE
  5
48C
330
75
100
AcDbEntity
  8
Visible (ISO)
100
AcDbLine
 10
513.8146273180336
 20
180.6573941782606
 30
0.0
 11
515.8652369834751
 21
179.4765266082628
 31
0.0
  0
LINE
  5
48D
330
75
100
AcDbEntity
  8
Visible (ISO)
100
AcDbLine
 10
515.8652369834751
 20
186.3947734898071
 30
0.0
 11
515.8652369834751
 21
182.3332079993247
 31
0.0
  0
ELLIPSE
  5
48E
330
75
100
AcDbEntity
  8
Visible (ISO)
100
AcDbEllipse
 10
499.4603596599448
 20
158.7559782615539
 30
0.0
 11
1.297483750119321
 21
-2.253116933977537
 31
0.0
210
0.0
220
0.0
230
1.0
 40
0.5780931159158104
 41
0.4193421108859266
 42
2.72225054270469
  0
LINE
  5
48F
330
75
100
AcDbEntity
  8
Visible (ISO)
100
AcDbLine
 10
516.9258971552549
 20
180.0873201789514
 30
0.0
 11
515.8652369834751
 21
179.4765266082628
 31
0.0
  0
LINE
  5
490
330
75
100
AcDbEntity
  8
Visible (ISO)
100
AcDbLine
 10
526.6839707356307
 20
140.0492853727471
 30
0.0
 11
525.6233105638509
 21
139.4384918020585
 31
0.0
  0
LINE
  5
491
330
75
100
AcDbEntity
  8
Visible (ISO)
100
AcDbLine
 10
534.1085919380908
 20
134.5521432365512
 30
0.0
 11
535.1692521098705
 21
135.1629368072399
 31
0.0
  0
LINE
  5
492
330
75
100
AcDbEntity
  8
Visible (ISO)
100
AcDbLine
 10
525.2697571732572
 20
149.4479216111783
 30
0.0
 11
524.2090970014776
 21
148.8371280404898
 31
0.0
  0
LINE
  5
493
330
75
100
AcDbEntity
  8
Visible (ISO)
100
AcDbLine
 10
503.7030003470647
 20
152.061558929619
 30
0.0
 11
504.7636605188444
 21
152.6723525003076
 31
0.0
  0
LINE
  5
494
330
75
100
AcDbEntity
  8
Visible (ISO)
100
AcDbLine
 10
496.2783791446045
 20
157.5587010658149
 30
0.0
 11
495.2177189728248
 21
156.9479074951263
 31
0.0
  0
LINE
  5
495
330
75
100
AcDbEntity
  8
Visible (ISO)
100
AcDbLine
 10
495.2177189728248
 20
275.4922405972946
 30
0.0
 11
496.2783791446045
 21
276.1030341679832
 31
0.0
  0
LINE
  5
496
330
75
100
AcDbEntity
  8
Visible (ISO)
100
AcDbLine
 10
533.7550385474972
 20
180.8851918024251
 30
0.0
 11
532.6943783757176
 21
180.2743982317364
 31
0.0
  0
LINE
  5
497
330
75
100
AcDbEntity
  8
Visible Narrow (ISO)
100
AcDbLine
 10
492.389291848078
 20
172.0614843643105
 30
0.0
 11
491.3286316762984
 21
171.4506907936218
 31
0.0
  0
LINE
  5
498
330
75
100
AcDbEntity
  8
Visible (ISO)
100
AcDbLine
 10
494.8641655822313
 20
170.6362993660375
 30
0.0
 11
493.8035054104516
 21
170.0255057953489
 31
0.0
  0
LINE
  5
499
330
75
100
AcDbEntity
  8
Visible (ISO)
100
AcDbLine
 10
494.8641655822313
 20
275.2823313458827
 30
0.0
 11
493.8035054104516
 21
274.671537775194
 31
0.0
  0
LINE
  5
49A
330
75
100
AcDbEntity
  8
Visible (ISO)
100
AcDbLine
 10
493.8035054104516
 20
159.3973931723959
 30
0.0
 11
494.8641655822313
 21
160.0081867430845
 31
0.0
  0
LINE
  5
49B
330
75
100
AcDbEntity
  8
Visible (ISO)
100
AcDbLine
 10
524.2090970014776
 20
141.8879774793282
 30
0.0
 11
525.2697571732574
 21
142.4987710500167
 31
0.0
  0
ELLIPSE
  5
49C
330
75
100
AcDbEntity
  8
Visible (ISO)
100
AcDbEllipse
 10
493.0963986292645
 20
172.4686800781029
 30
0.0
 11
-1.0
 21
0.0
 31
0.0
210
0.0
220
0.0
230
1.0
 40
0.5758617009853122
 41
5.497787143782282
 42
7.068583470577171
  0
ELLIPSE
  5
49D
330
75
100
AcDbEntity
  8
Visible (ISO)
100
AcDbEllipse
 10
493.0963986292645
 20
172.4686800781029
 30
0.0
 11
-2.499999999999998
 21
-0.0000000000000003
 31
0.0
210
0.0
220
0.0
230
1.0
 40
0.5758617009853122
 41
5.497787143782272
 42
7.068583470577179
  0
LINE
  5
49E
330
75
100
AcDbEntity
  8
Visible Narrow (ISO)
100
AcDbLine
 10
491.3286316762976
 20
173.4866693625836
 30
0.0
 11
491.3286316762977
 21
267.5045887194757
 31
0.0
  0
ELLIPSE
  5
49F
330
75
100
AcDbEntity
  8
Visible (ISO)
100
AcDbEllipse
 10
493.0963986292645
 20
266.486599434995
 30
0.0
 11
-2.499999999999999
 21
0.0000000000000007
 31
0.0
210
0.0
220
0.0
230
1.0
 40
0.5758617009853122
 41
5.497787143782294
 42
6.283185307179588
  0
LINE
  5
4A0
330
75
100
AcDbEntity
  8
Visible Narrow (ISO)
100
AcDbLine
 10
491.3286316762976
 20
173.4866693625836
 30
0.0
 11
492.3892918480778
 21
172.8758757918951
 31
0.0
  0
LINE
  5
4A1
330
75
100
AcDbEntity
  8
Visible (ISO)
100
AcDbLine
 10
528.8052910791792
 20
273.0054554150823
 30
0.0
 11
528.4517376885863
 21
272.8018575581863
 31
0.0
  0
LINE
  5
4A2
330
75
100
AcDbEntity
  8
Visible (ISO)
100
AcDbLine
 10
528.4517376885863
 20
272.8018575581863
 30
0.0
 11
528.4517376885863
 21
209.8868727556662
 31
0.0
  0
LINE
  5
4A3
330
75
100
AcDbEntity
  8
Visible (ISO)
100
AcDbLine
 10
535.1692521098574
 20
197.5112164763351
 30
0.0
 11
535.1692521098575
 21
214.9572356272146
 31
0.0
  0
LINE
  5
4A4
330
75
100
AcDbEntity
  8
Visible (ISO)
100
AcDbLine
 10
535.1692521098574
 20
197.5112164763351
 30
0.0
 11
492.3892918480778
 21
172.8758757918951
 31
0.0
  0
LINE
  5
4A5
330
75
100
AcDbEntity
  8
Visible (ISO)
100
AcDbLine
 10
535.1692521098575
 20
274.2466261073161
 30
0.0
 11
535.1692521098574
 21
291.5291358332273
 31
0.0
  0
LINE
  5
4A6
330
75
100
AcDbEntity
  8
Visible (ISO)
100
AcDbLine
 10
501.2281266129079
 20
257.1248225771789
 30
0.0
 11
500.874573222315
 21
256.9212247202828
 31
0.0
  0
LINE
  5
4A7
330
75
100
AcDbEntity
  8
Visible (ISO)
100
AcDbLine
 10
500.874573222315
 20
254.497633988385
 30
0.0
 11
500.874573222315
 21
256.9212247202828
 31
0.0
  0
LINE
  5
4A8
330
75
100
AcDbEntity
  8
Visible (ISO)
100
AcDbLine
 10
494.5106121916367
 20
253.2564632961511
 30
0.0
 11
494.1570588010439
 21
253.0528654392551
 31
0.0
  0
LINE
  5
4A9
330
75
100
AcDbEntity
  8
Visible (ISO)
100
AcDbLine
 10
494.1570588010439
 20
253.0528654392551
 30
0.0
 11
494.1570588010439
 21
233.4270008971475
 31
0.0
  0
LINE
  5
4AA
330
75
100
AcDbEntity
  8
Visible (ISO)
100
AcDbLine
 10
501.2281266129079
 20
213.8357023167663
 30
0.0
 11
494.1570588010439
 21
209.7637451788426
 31
0.0
  0
LINE
  5
4AB
330
75
100
AcDbEntity
  8
Visible (ISO)
100
AcDbLine
 10
494.1570588010439
 20
209.7637451788426
 30
0.0
 11
494.1570588010439
 21
190.137880636735
 31
0.0
  0
LINE
  5
4AC
330
75
100
AcDbEntity
  8
Visible (ISO)
100
AcDbLine
 10
500.874573222315
 20
195.2082435082835
 30
0.0
 11
500.874573222315
 21
194.0062399177628
 31
0.0
  0
LINE
  5
4AD
330
75
100
AcDbEntity
  8
Visible (ISO)
100
AcDbLine
 10
527.3910775168062
 20
273.4126511288747
 30
0.0
 11
527.3910775168062
 21
209.2760791849774
 31
0.0
  0
LINE
  5
4AE
330
75
100
AcDbEntity
  8
Visible (ISO)
100
AcDbLine
 10
528.8052910791791
 20
274.2270425564595
 30
0.0
 11
527.3910775168062
 21
273.4126511288747
 31
0.0
  0
LINE
  5
4AF
330
75
100
AcDbEntity
  8
Visible (ISO)
100
AcDbLine
 10
528.8052910791791
 20
274.2270425564595
 30
0.0
 11
528.8052910791792
 21
271.8034518245616
 31
0.0
  0
LINE
  5
4B0
330
75
100
AcDbEntity
  8
Visible Narrow (ISO)
100
AcDbLine
 10
528.8052910791792
 20
271.8034518245616
 30
0.0
 11
534.1085919380775
 21
274.8574196780045
 31
0.0
  0
LINE
  5
4B1
330
75
100
AcDbEntity
  8
Visible (ISO)
100
AcDbLine
 10
534.1085919380775
 20
274.8574196780045
 30
0.0
 11
534.1085919380774
 21
292.1399294039156
 31
0.0
  0
LINE
  5
4B2
330
75
100
AcDbEntity
  8
Visible (ISO)
100
AcDbLine
 10
534.1085919380774
 20
292.1399294039156
 30
0.0
 11
491.3286316762977
 21
267.5045887194757
 31
0.0
  0
LINE
  5
4B3
330
75
100
AcDbEntity
  8
Visible (ISO)
100
AcDbLine
 10
534.1085919380774
 20
198.1220100470235
 30
0.0
 11
491.3286316762976
 21
173.4866693625837
 31
0.0
  0
LINE
  5
4B4
330
75
100
AcDbEntity
  8
Visible (ISO)
100
AcDbLine
 10
534.1085919380774
 20
198.1220100470235
 30
0.0
 11
534.1085919380775
 21
215.568029197903
 31
0.0
  0
LINE
  5
4B5
330
75
100
AcDbEntity
  8
Visible Narrow (ISO)
100
AcDbLine
 10
528.8052910791792
 20
212.51406134446
 30
0.0
 11
534.1085919380775
 21
215.568029197903
 31
0.0
  0
LINE
  5
4B6
330
75
100
AcDbEntity
  8
Visible (ISO)
100
AcDbLine
 10
528.8052910791791
 20
210.0904706125622
 30
0.0
 11
528.8052910791792
 21
212.51406134446
 31
0.0
  0
LINE
  5
4B7
330
75
100
AcDbEntity
  8
Visible (ISO)
100
AcDbLine
 10
527.3910775168062
 20
209.2760791849774
 30
0.0
 11
528.8052910791791
 21
210.0904706125622
 31
0.0
  0
LINE
  5
4B8
330
75
100
AcDbEntity
  8
Visible (ISO)
100
AcDbLine
 10
493.0963986292639
 20
210.374538749531
 30
0.0
 11
493.0963986292639
 21
189.5270870660462
 31
0.0
  0
LINE
  5
4B9
330
75
100
AcDbEntity
  8
Visible (ISO)
100
AcDbLine
 10
501.228126612908
 20
215.0572894581435
 30
0.0
 11
493.0963986292639
 21
210.374538749531
 31
0.0
  0
LINE
  5
4BA
330
75
100
AcDbEntity
  8
Visible (ISO)
100
AcDbLine
 10
501.228126612908
 20
194.2098377746588
 30
0.0
 11
501.228126612908
 21
215.0572894581435
 31
0.0
  0
LINE
  5
4BB
330
75
100
AcDbEntity
  8
Visible (ISO)
100
AcDbLine
 10
499.8139130505351
 20
193.3954463470739
 30
0.0
 11
501.228126612908
 21
194.2098377746588
 31
0.0
  0
LINE
  5
4BC
330
75
100
AcDbEntity
  8
Visible (ISO)
100
AcDbLine
 10
499.8139130505351
 20
193.3954463470739
 30
0.0
 11
499.8139130505351
 21
195.8190370789718
 31
0.0
  0
LINE
  5
4BD
330
75
100
AcDbEntity
  8
Visible Narrow (ISO)
100
AcDbLine
 10
494.5106121916368
 20
192.7650692255289
 30
0.0
 11
499.8139130505351
 21
195.8190370789718
 31
0.0
  0
LINE
  5
4BE
330
75
100
AcDbEntity
  8
Visible (ISO)
100
AcDbLine
 10
494.5106121916367
 20
190.341478493631
 30
0.0
 11
494.5106121916368
 21
192.7650692255289
 31
0.0
  0
LINE
  5
4BF
330
75
100
AcDbEntity
  8
Visible (ISO)
100
AcDbLine
 10
493.0963986292639
 20
189.5270870660462
 30
0.0
 11
494.5106121916367
 21
190.341478493631
 31
0.0
  0
LINE
  5
4C0
330
75
100
AcDbEntity
  8
Visible (ISO)
100
AcDbLine
 10
493.0963986292638
 20
253.6636590099434
 30
0.0
 11
493.0963986292639
 21
232.8162073264588
 31
0.0
  0
LINE
  5
4C1
330
75
100
AcDbEntity
  8
Visible (ISO)
100
AcDbLine
 10
494.5106121916367
 20
254.4780504375283
 30
0.0
 11
493.0963986292638
 21
253.6636590099434
 31
0.0
  0
LINE
  5
4C2
330
75
100
AcDbEntity
  8
Visible (ISO)
100
AcDbLine
 10
494.5106121916367
 20
254.4780504375283
 30
0.0
 11
494.5106121916368
 21
252.0544597056304
 31
0.0
  0
LINE
  5
4C3
330
75
100
AcDbEntity
  8
Visible Narrow (ISO)
100
AcDbLine
 10
494.5106121916368
 20
252.0544597056304
 30
0.0
 11
499.8139130505351
 21
255.1084275590734
 31
0.0
  0
LINE
  5
4C4
330
75
100
AcDbEntity
  8
Visible (ISO)
100
AcDbLine
 10
499.8139130505351
 20
257.5320182909713
 30
0.0
 11
499.8139130505351
 21
255.1084275590734
 31
0.0
  0
LINE
  5
4C5
330
75
100
AcDbEntity
  8
Visible (ISO)
100
AcDbLine
 10
501.228126612908
 20
258.346409718556
 30
0.0
 11
499.8139130505351
 21
257.5320182909713
 31
0.0
  0
LINE
  5
4C6
330
75
100
AcDbEntity
  8
Visible (ISO)
100
AcDbLine
 10
501.228126612908
 20
237.4989580350713
 30
0.0
 11
501.228126612908
 21
258.346409718556
 31
0.0
  0
LINE
  5
4C7
330
75
100
AcDbEntity
  8
Visible (ISO)
100
AcDbLine
 10
493.0963986292639
 20
232.8162073264588
 30
0.0
 11
501.228126612908
 21
237.4989580350713
 31
0.0
  0
LINE
  5
4C8
330
75
100
AcDbEntity
  8
Visible (ISO)
100
AcDbLine
 10
534.1085919380774
 20
198.1220100470235
 30
0.0
 11
535.1692521098574
 21
197.5112164763351
 31
0.0
  0
LINE
  5
4C9
330
75
100
AcDbEntity
  8
Visible (ISO)
100
AcDbLine
 10
535.1692521098574
 20
291.5291358332273
 30
0.0
 11
534.1085919380774
 21
292.1399294039156
 31
0.0
  0
ELLIPSE
  5
4CA
330
75
100
AcDbEntity
  8
Visible (ISO)
100
AcDbEllipse
 10
535.8763588910441
 20
273.8394303935239
 30
0.0
 11
-0.4990322115844071
 21
0.8665834361451787
 31
0.0
210
0.0
220
0.0
230
1.0
 40
0.5780931159158104
 41
0.7873318718203742
 42
1.572730035217854
  0
LINE
  5
4CB
330
75
100
AcDbEntity
  8
Visible (ISO)
100
AcDbLine
 10
528.4517376885863
 20
272.8018575581863
 30
0.0
 11
527.3910775168062
 21
273.4126511288747
 31
0.0
  0
LINE
  5
4CC
330
75
100
AcDbEntity
  8
Visible (ISO)
100
AcDbLine
 10
494.1570588010439
 20
209.7637451788426
 30
0.0
 11
493.0963986292639
 21
210.374538749531
 31
0.0
  0
LINE
  5
4CD
330
75
100
AcDbEntity
  8
Visible (ISO)
100
AcDbLine
 10
497.6925927069767
 20
235.885953666191
 30
0.0
 11
498.059845989629
 21
235.6744665661505
 31
0.0
  0
LINE
  5
4CE
330
75
100
AcDbEntity
  8
Visible (ISO)
100
AcDbLine
 10
497.6925927069767
 20
245.3578800573126
 30
0.0
 11
497.6925927069767
 21
235.885953666191
 31
0.0
  0
ELLIPSE
  5
4CF
330
75
100
AcDbEntity
  8
Visible (ISO)
100
AcDbEllipse
 10
496.9854859257901
 20
245.7650757711049
 30
0.0
 11
0.4990322115844023
 21
-0.8665834361451706
 31
0.0
210
0.0
220
0.0
230
1.0
 40
0.5780931159158103
 41
0.7873318718202871
 42
1.572730035217762
  0
LINE
  5
4D0
330
75
100
AcDbEntity
  8
Visible (ISO)
100
AcDbLine
 10
495.0283791446032
 20
250.3110647575919
 30
0.0
 11
497.4854859257901
 21
246.055238036528
 31
0.0
  0
ELLIPSE
  5
4D1
330
75
100
AcDbEntity
  8
Visible (ISO)
100
AcDbEllipse
 10
496.2783791446034
 20
251.0364704211498
 30
0.0
 11
1.247580528961152
 21
-2.166458590362881
 31
0.0
210
0.0
220
0.0
230
1.0
 40
0.5780931159158104
 41
3.928924525409909
 42
4.714322688807491
  0
ELLIPSE
  5
4D2
330
75
100
AcDbEntity
  8
Visible (ISO)
100
AcDbEllipse
 10
501.5816800035017
 20
194.8010477944911
 30
0.0
 11
-0.4990322115844147
 21
0.8665834361451921
 31
0.0
210
0.0
220
0.0
230
1.0
 40
0.5780931159158104
 41
0.0019337084227973
 42
0.7873318718202429
  0
ELLIPSE
  5
4D3
330
75
100
AcDbEntity
  8
Visible (ISO)
100
AcDbEllipse
 10
535.8763588910441
 20
273.8394303935239
 30
0.0
 11
1.247580528961156
 21
-2.166458590362889
 31
0.0
210
0.0
220
0.0
230
1.0
 40
0.5780931159158104
 41
3.928924525409909
 42
4.714322688807478
  0
LINE
  5
4D4
330
75
100
AcDbEntity
  8
Visible (ISO)
100
AcDbLine
 10
534.6263588910439
 20
273.1140247299661
 30
0.0
 11
537.0834656722309
 21
268.858198008902
 31
0.0
  0
ELLIPSE
  5
4D5
330
75
100
AcDbEntity
  8
Visible (ISO)
100
AcDbEllipse
 10
536.5834656722308
 20
268.568035743479
 30
0.0
 11
0.4990322115843959
 21
-0.8665834361451596
 31
0.0
210
0.0
220
0.0
230
1.0
 40
0.5780931159158104
 41
0.7873318718202871
 42
1.57273003521773
  0
LINE
  5
4D6
330
75
100
AcDbEntity
  8
Visible (ISO)
100
AcDbLine
 10
537.2905724534176
 20
268.1608400296867
 30
0.0
 11
537.2905724534176
 21
258.6889136385651
 31
0.0
  0
LINE
  5
4D7
330
75
100
AcDbEntity
  8
Visible (ISO)
100
AcDbLine
 10
537.2905724534176
 20
258.6889136385651
 30
0.0
 11
538.3512326251975
 21
258.0781200678767
 31
0.0
  0
LINE
  5
4D8
330
75
100
AcDbEntity
  8
Visible (ISO)
100
AcDbLine
 10
538.3512326251975
 20
258.0781200678767
 30
0.0
 11
538.3512326251975
 21
267.5500464589983
 31
0.0
  0
ELLIPSE
  5
4D9
330
75
100
AcDbEntity
  8
Visible (ISO)
100
AcDbEllipse
 10
536.5834656722308
 20
268.568035743479
 30
0.0
 11
-1.247580528961123
 21
2.166458590362831
 31
0.0
210
0.0
220
0.0
230
1.0
 40
0.5780931159158104
 41
3.928924525409872
 42
4.71432268880748
  0
LINE
  5
4DA
330
75
100
AcDbEntity
  8
Visible (ISO)
100
AcDbLine
 10
537.833465672231
 20
269.2934414070368
 30
0.0
 11
535.3763588910441
 21
273.5492681281007
 31
0.0
  0
LINE
  5
4DB
330
75
100
AcDbEntity
  8
Visible (ISO)
100
AcDbLine
 10
500.874573222315
 20
256.9212247202828
 30
0.0
 11
499.8139130505351
 21
257.5320182909713
 31
0.0
  0
ELLIPSE
  5
4DC
330
75
100
AcDbEntity
  8
Visible (ISO)
100
AcDbEllipse
 10
530.5730580321458
 20
211.4960720599793
 30
0.0
 11
-1.247580528961029
 21
2.166458590362967
 31
0.0
210
0.0
220
0.0
230
1.0
 40
0.5780931159158105
 41
0.0019337084228921
 42
0.7873318718203226
  0
LINE
  5
4DD
330
75
100
AcDbEntity
  8
Visible (ISO)
100
AcDbLine
 10
529.3230580321457
 20
213.6611319760001
 30
0.0
 11
531.7801648133326
 21
215.0870513160313
 31
0.0
  0
ELLIPSE
  5
4DE
330
75
100
AcDbEntity
  8
Visible (ISO)
100
AcDbEllipse
 10
531.2801648133326
 20
215.9530752824396
 30
0.0
 11
0.4990322115844024
 21
-0.8665834361451706
 31
0.0
210
0.0
220
0.0
230
1.0
 40
0.5780931159158105
 41
0.0019337084228592
 42
0.7873318718204169
  0
LINE
  5
4DF
330
75
100
AcDbEntity
  8
Visible (ISO)
100
AcDbLine
 10
531.9872715945193
 20
215.5458795686474
 30
0.0
 11
531.9872715945193
 21
225.017805959769
 31
0.0
  0
ELLIPSE
  5
4E0
330
75
100
AcDbEntity
  8
Visible (ISO)
100
AcDbEllipse
 10
535.8763588910441
 20
214.5500399134223
 30
0.0
 11
-0.4990322115844165
 21
0.8665834361451951
 31
0.0
210
0.0
220
0.0
230
1.0
 40
0.5780931159158104
 41
0.0019337084227972
 42
0.7873318718202431
  0
LINE
  5
4E1
330
75
100
AcDbEntity
  8
Visible (ISO)
100
AcDbLine
 10
531.9872715945193
 20
255.6349457851221
 30
0.0
 11
533.0479317662992
 21
255.0241522144337
 31
0.0
  0
LINE
  5
4E2
330
75
100
AcDbEntity
  8
Visible (ISO)
100
AcDbLine
 10
531.9872715945193
 20
265.1068721762437
 30
0.0
 11
531.9872715945193
 21
255.6349457851221
 31
0.0
  0
ELLIPSE
  5
4E3
330
75
100
AcDbEntity
  8
Visible (ISO)
100
AcDbEllipse
 10
531.2801648133326
 20
265.514067890036
 30
0.0
 11
0.4990322115844007
 21
-0.8665834361451677
 31
0.0
210
0.0
220
0.0
230
1.0
 40
0.5780931159158105
 41
0.7873318718203297
 42
1.57273003521773
  0
LINE
  5
4E4
330
75
100
AcDbEntity
  8
Visible (ISO)
100
AcDbLine
 10
529.3230580321457
 20
270.0600568765231
 30
0.0
 11
531.7801648133326
 21
265.8042301554591
 31
0.0
  0
ELLIPSE
  5
4E5
330
75
100
AcDbEntity
  8
Visible (ISO)
100
AcDbEllipse
 10
530.5730580321458
 20
270.7854625400809
 30
0.0
 11
1.247580528961143
 21
-2.166458590362866
 31
0.0
210
0.0
220
0.0
230
1.0
 40
0.5780931159158105
 41
3.928924525409943
 42
4.714322688807502
  0
LINE
  5
4E6
330
75
100
AcDbEntity
  8
Visible (ISO)
100
AcDbLine
 10
494.1570588010439
 20
253.0528654392551
 30
0.0
 11
493.0963986292638
 21
253.6636590099434
 31
0.0
  0
LINE
  5
4E7
330
75
100
AcDbEntity
  8
Visible (ISO)
100
AcDbLine
 10
537.833465672231
 20
216.8419832198618
 30
0.0
 11
535.3763588910441
 21
215.4160638798306
 31
0.0
  0
ELLIPSE
  5
4E8
330
75
100
AcDbEntity
  8
Visible (ISO)
100
AcDbEllipse
 10
536.5834656722308
 20
219.0070431358826
 30
0.0
 11
1.247580528961005
 21
-2.166458590362925
 31
0.0
210
0.0
220
0.0
230
1.0
 40
0.5780931159158104
 41
0.001933708422861
 42
0.7873318718203573
  0
LINE
  5
4E9
330
75
100
AcDbEntity
  8
Visible (ISO)
100
AcDbLine
 10
538.3512326251975
 20
227.4609802425235
 30
0.0
 11
538.3512326251975
 21
217.9890538514019
 31
0.0
  0
LINE
  5
4EA
330
75
100
AcDbEntity
  8
Visible (ISO)
100
AcDbLine
 10
537.2905724534176
 20
228.0717738132119
 30
0.0
 11
538.3512326251975
 21
227.4609802425235
 31
0.0
  0
LINE
  5
4EB
330
75
100
AcDbEntity
  8
Visible (ISO)
100
AcDbLine
 10
537.2905724534176
 20
218.5998474220903
 30
0.0
 11
537.2905724534176
 21
228.0717738132119
 31
0.0
  0
ELLIPSE
  5
4EC
330
75
100
AcDbEntity
  8
Visible (ISO)
100
AcDbEllipse
 10
536.5834656722308
 20
219.0070431358826
 30
0.0
 11
0.4990322115844038
 21
-0.8665834361451732
 31
0.0
210
0.0
220
0.0
230
1.0
 40
0.5780931159158103
 41
0.0019337084229654
 42
0.7873318718204172
  0
LINE
  5
4ED
330
75
100
AcDbEntity
  8
Visible (ISO)
100
AcDbLine
 10
534.6263588910439
 20
216.7150998294431
 30
0.0
 11
537.0834656722309
 21
218.1410191694743
 31
0.0
  0
ELLIPSE
  5
4EE
330
75
100
AcDbEntity
  8
Visible (ISO)
100
AcDbEllipse
 10
535.8763588910441
 20
214.5500399134223
 30
0.0
 11
-1.247580528961033
 21
2.166458590362975
 31
0.0
210
0.0
220
0.0
230
1.0
 40
0.5780931159158105
 41
0.0019337084228797
 42
0.7873318718203049
  0
ELLIPSE
  5
4EF
330
75
100
AcDbEntity
  8
Visible (ISO)
100
AcDbEllipse
 10
501.5816800035017
 20
254.0904382745927
 30
0.0
 11
-0.4990322115844181
 21
0.8665834361451981
 31
0.0
210
0.0
220
0.0
230
1.0
 40
0.5780931159158103
 41
0.7873318718204239
 42
1.572730035217817
  0
ELLIPSE
  5
4F0
330
75
100
AcDbEntity
  8
Visible (ISO)
100
AcDbEllipse
 10
501.5816800035017
 20
254.0904382745928
 30
0.0
 11
1.247580528961178
 21
-2.166458590362928
 31
0.0
210
0.0
220
0.0
230
0.9999999999999998
 40
0.5780931159158104
 41
3.928924525409909
 42
4.714322688807478
  0
LINE
  5
4F1
330
75
100
AcDbEntity
  8
Visible (ISO)
100
AcDbLine
 10
500.3316800035015
 20
253.3650326110349
 30
0.0
 11
501.228126612908
 21
251.8123441143322
 31
0.0
  0
LINE
  5
4F2
330
75
100
AcDbEntity
  8
Visible (ISO)
100
AcDbLine
 10
501.228126612908
 20
253.5466234620794
 30
0.0
 11
501.0816800035017
 21
253.8002760091696
 31
0.0
  0
LINE
  5
4F3
330
75
100
AcDbEntity
  8
Visible (ISO)
100
AcDbLine
 10
501.228126612908
 20
195.7520583207972
 30
0.0
 11
501.0816800035017
 21
195.6670717608995
 31
0.0
  0
LINE
  5
4F4
330
75
100
AcDbEntity
  8
Visible (ISO)
100
AcDbLine
 10
500.3316800035015
 20
196.966107710512
 30
0.0
 11
501.228126612908
 21
197.4863376685444
 31
0.0
  0
ELLIPSE
  5
4F5
330
75
100
AcDbEntity
  8
Visible (ISO)
100
AcDbEllipse
 10
501.5816800035017
 20
194.8010477944911
 30
0.0
 11
-1.247580528961027
 21
2.166458590362964
 31
0.0
210
0.0
220
0.0
230
1.0
 40
0.5780931159158104
 41
0.0019337084228797
 42
0.7873318718203022
  0
ELLIPSE
  5
4F6
330
75
100
AcDbEntity
  8
Visible (ISO)
100
AcDbEllipse
 10
496.2783791446034
 20
191.7470799410481
 30
0.0
 11
-1.247580528961044
 21
2.166458590362994
 31
0.0
210
0.0
220
0.0
230
1.0
 40
0.5780931159158104
 41
0.0019337084228788
 42
0.7873318718203049
  0
LINE
  5
4F7
330
75
100
AcDbEntity
  8
Visible (ISO)
100
AcDbLine
 10
495.0283791446032
 20
193.9121398570691
 30
0.0
 11
497.4854859257901
 21
195.3380591971002
 31
0.0
  0
ELLIPSE
  5
4F8
330
75
100
AcDbEntity
  8
Visible (ISO)
100
AcDbEllipse
 10
496.9854859257901
 20
196.2040831635085
 30
0.0
 11
0.4990322115844024
 21
-0.8665834361451704
 31
0.0
210
0.0
220
0.0
230
1.0
 40
0.5780931159158102
 41
0.0019337084228583
 42
0.7873318718204602
  0
LINE
  5
4F9
330
75
100
AcDbEntity
  8
Visible (ISO)
100
AcDbLine
 10
497.6925927069767
 20
195.7968874497163
 30
0.0
 11
497.6925927069767
 21
205.2688138408378
 31
0.0
  0
LINE
  5
4FA
330
75
100
AcDbEntity
  8
Visible Narrow (ISO)
100
AcDbLine
 10
495.0283791446032
 20
193.9121398570691
 30
0.0
 11
500.3316800035015
 21
196.966107710512
 31
0.0
  0
LINE
  5
4FB
330
75
100
AcDbEntity
  8
Visible Narrow (ISO)
100
AcDbLine
 10
529.3230580321457
 20
213.6611319760001
 30
0.0
 11
534.6263588910439
 21
216.7150998294431
 31
0.0
  0
LINE
  5
4FC
330
75
100
AcDbEntity
  8
Visible Narrow (ISO)
100
AcDbLine
 10
495.0283791446032
 20
250.3110647575919
 30
0.0
 11
500.3316800035015
 21
253.3650326110349
 31
0.0
  0
LINE
  5
4FD
330
75
100
AcDbEntity
  8
Visible Narrow (ISO)
100
AcDbLine
 10
529.3230580321457
 20
270.0600568765231
 30
0.0
 11
534.6263588910439
 21
273.1140247299661
 31
0.0
  0
LINE
  5
4FE
330
75
100
AcDbEntity
  8
Visible Narrow (ISO)
100
AcDbLine
 10
497.4854859257901
 20
246.055238036528
 30
0.0
 11
501.228126612908
 21
248.2104814687891
 31
0.0
  0
LINE
  5
4FF
330
75
100
AcDbEntity
  8
Visible Narrow (ISO)
100
AcDbLine
 10
497.6925927069767
 20
245.3578800573126
 30
0.0
 11
501.228126612908
 21
247.393858626274
 31
0.0
  0
LINE
  5
500
330
75
100
AcDbEntity
  8
Visible (ISO)
100
AcDbLine
 10
497.6925927069767
 20
235.885953666191
 30
0.0
 11
501.228126612908
 21
237.9219322351524
 31
0.0
  0
LINE
  5
501
330
75
100
AcDbEntity
  8
Visible Narrow (ISO)
100
AcDbLine
 10
531.7801648133326
 20
265.8042301554591
 30
0.0
 11
537.0834656722309
 21
268.858198008902
 31
0.0
  0
LINE
  5
502
330
75
100
AcDbEntity
  8
Visible (ISO)
100
AcDbLine
 10
533.0479317662992
 20
255.0241522144337
 30
0.0
 11
538.3512326251975
 21
258.0781200678767
 31
0.0
  0
LINE
  5
503
330
75
100
AcDbEntity
  8
Visible (ISO)
100
AcDbLine
 10
531.9872715945193
 20
255.6349457851221
 30
0.0
 11
537.2905724534176
 21
258.6889136385651
 31
0.0
  0
LINE
  5
504
330
75
100
AcDbEntity
  8
Visible Narrow (ISO)
100
AcDbLine
 10
531.9872715945193
 20
265.1068721762437
 30
0.0
 11
537.2905724534176
 21
268.1608400296867
 31
0.0
  0
LINE
  5
505
330
75
100
AcDbEntity
  8
Visible Narrow (ISO)
100
AcDbLine
 10
531.7801648133326
 20
215.0870513160313
 30
0.0
 11
537.0834656722309
 21
218.1410191694743
 31
0.0
  0
LINE
  5
506
330
75
100
AcDbEntity
  8
Visible Narrow (ISO)
100
AcDbLine
 10
531.9872715945193
 20
215.5458795686474
 30
0.0
 11
537.2905724534176
 21
218.5998474220903
 31
0.0
  0
LINE
  5
507
330
75
100
AcDbEntity
  8
Visible (ISO)
100
AcDbLine
 10
531.9872715945193
 20
225.017805959769
 30
0.0
 11
537.2905724534176
 21
228.0717738132119
 31
0.0
  0
LINE
  5
508
330
75
100
AcDbEntity
  8
Visible (ISO)
100
AcDbLine
 10
497.6925927069767
 20
205.2688138408378
 30
0.0
 11
501.228126612908
 21
207.3047924097992
 31
0.0
  0
LINE
  5
509
330
75
100
AcDbEntity
  8
Visible Narrow (ISO)
100
AcDbLine
 10
497.6925927069767
 20
195.7968874497163
 30
0.0
 11
501.228126612908
 21
197.8328660186777
 31
0.0
  0
LINE
  5
50A
330
75
100
AcDbEntity
  8
Visible Narrow (ISO)
100
AcDbLine
 10
497.4854859257901
 20
195.3380591971002
 30
0.0
 11
501.228126612908
 21
197.4933026293614
 31
0.0
  0
LINE
  5
50B
330
75
100
AcDbEntity
  8
Visible (ISO)
100
AcDbLine
 10
499.2214206603614
 20
200.2881598152352
 30
0.0
 11
498.3728925229375
 21
200.7767946717859
 31
0.0
  0
LINE
  5
50C
330
75
100
AcDbEntity
  8
Visible (ISO)
100
AcDbLine
 10
501.228126612908
 20
204.3253810966203
 30
0.0
 11
500.6185374750663
 21
204.6764201344398
 31
0.0
  0
LINE
  5
50D
330
75
100
AcDbEntity
  8
Visible (ISO)
100
AcDbLine
 10
499.2214206603614
 20
240.0209500825827
 30
0.0
 11
498.3728925229375
 21
240.5095849391334
 31
0.0
  0
LINE
  5
50E
330
75
100
AcDbEntity
  8
Visible (ISO)
100
AcDbLine
 10
501.228126612908
 20
244.0581713639677
 30
0.0
 11
500.6185374750663
 21
244.4092104017873
 31
0.0
  0
LINE
  5
50F
330
75
100
AcDbEntity
  8
Visible (ISO)
100
AcDbLine
 10
533.5160995479039
 20
220.0371519341663
 30
0.0
 11
532.66757141048
 21
220.5257867907171
 31
0.0
  0
LINE
  5
510
330
75
100
AcDbEntity
  8
Visible (ISO)
100
AcDbLine
 10
535.7617445000328
 20
223.9367773968202
 30
0.0
 11
534.9132163626088
 21
224.4254122533709
 31
0.0
  0
LINE
  5
511
330
75
100
AcDbEntity
  8
Visible (ISO)
100
AcDbLine
 10
533.5160995479039
 20
259.7699422015138
 30
0.0
 11
532.66757141048
 21
260.2585770580645
 31
0.0
  0
LINE
  5
512
330
75
100
AcDbEntity
  8
Visible (ISO)
100
AcDbLine
 10
535.7617445000328
 20
263.6695676641677
 30
0.0
 11
534.9132163626088
 21
264.1582025207184
 31
0.0
  0
LINE
  5
513
330
75
100
AcDbEntity
  8
Visible (ISO)
100
AcDbLine
 10
490.5963986292644
 20
266.486599434995
 30
0.0
 11
490.5963986292644
 21
172.4686800781029
 31
0.0
  0
POLYLINE
  5
514
330
75
100
AcDbEntity
  8
Visible (ISO)
100
AcDb2dPolyline
 66
     1
 10
0.0
 20
0.0
 30
0.0
 70
   128
  0
VERTEX
  5
515
330
514
100
AcDbEntity
  8
Visible (ISO)
100
AcDbVertex
100
AcDb2dVertex
 10
499.7790596298665
 20
241.3139977139556
 30
0.0
  0
VERTEX
  5
516
330
514
100
AcDbEntity
  8
Visible (ISO)
100
AcDbVertex
100
AcDb2dVertex
 10
499.8407242624543
 20
241.5071000873043
 30
0.0
  0
VERTEX
  5
518
330
514
100
AcDbEntity
  8
Visible (ISO)
100
AcDbVertex
100
AcDb2dVertex
 10
499.9181745756835
 20
241.7055994687494
 30
0.0
  0
VERTEX
  5
519
330
514
100
AcDbEntity
  8
Visible (ISO)
100
AcDbVertex
100
AcDb2dVertex
 10
500.0104854462289
 20
241.9052617417065
 30
0.0
  0
VERTEX
  5
51A
330
514
100
AcDbEntity
  8
Visible (ISO)
100
AcDbVertex
100
AcDb2dVertex
 10
500.1162057580967
 20
242.1020810924313
 30
0.0
  0
VERTEX
  5
51B
330
514
100
AcDbEntity
  8
Visible (ISO)
100
AcDbVertex
100
AcDb2dVertex
 10
500.233357559686
 20
242.2923165591051
 30
0.0
  0
VERTEX
  5
51C
330
514
100
AcDbEntity
  8
Visible (ISO)
100
AcDbVertex
100
AcDb2dVertex
 10
500.359747107532
 20
242.4723520405573
 30
0.0
  0
VERTEX
  5
51D
330
514
100
AcDbEntity
  8
Visible (ISO)
100
AcDbVertex
100
AcDb2dVertex
 10
500.4925181097109
 20
242.6390014827878
 30
0.0
  0
VERTEX
  5
51E
330
514
100
AcDbEntity
  8
Visible (ISO)
100
AcDbVertex
100
AcDb2dVertex
 10
500.628599325372
 20
242.7892469696276
 30
0.0
  0
SEQEND
  5
517
330
514
100
AcDbEntity
  8
Visible (ISO)
  0
POLYLINE
  5
51F
330
75
100
AcDbEntity
  8
Visible (ISO)
100
AcDb2dPolyline
 66
     1
 10
0.0
 20
0.0
 30
0.0
 70
   128
  0
VERTEX
  5
520
330
51F
100
AcDbEntity
  8
Visible (ISO)
100
AcDbVertex
100
AcDb2dVertex
 10
534.0737395289334
 20
261.0629904153848
 30
0.0
  0
VERTEX
  5
521
330
51F
100
AcDbEntity
  8
Visible (ISO)
100
AcDbVertex
100
AcDb2dVertex
 10
534.1354037400527
 20
261.2560925460259
 30
0.0
  0
VERTEX
  5
523
330
51F
100
AcDbEntity
  8
Visible (ISO)
100
AcDbVertex
100
AcDb2dVertex
 10
534.2128544747502
 20
261.4545921701787
 30
0.0
  0
VERTEX
  5
524
330
51F
100
AcDbEntity
  8
Visible (ISO)
100
AcDbVertex
100
AcDb2dVertex
 10
534.3051645023588
 20
261.6542539577207
 30
0.0
  0
VERTEX
  5
525
330
51F
100
AcDbEntity
  8
Visible (ISO)
100
AcDbVertex
100
AcDb2dVertex
 10
534.4108856571635
 20
261.8510737938606
 30
0.0
  0
VERTEX
  5
526
330
51F
100
AcDbEntity
  8
Visible (ISO)
100
AcDbVertex
100
AcDb2dVertex
 10
534.5280353514104
 20
262.0413080469966
 30
0.0
  0
VERTEX
  5
527
330
51F
100
AcDbEntity
  8
Visible (ISO)
100
AcDbVertex
100
AcDb2dVertex
 10
534.6544270065988
 20
262.2213447419866
 30
0.0
  0
VERTEX
  5
528
330
51F
100
AcDbEntity
  8
Visible (ISO)
100
AcDbVertex
100
AcDb2dVertex
 10
534.7871980087778
 20
262.387994184217
 30
0.0
  0
VERTEX
  5
529
330
51F
100
AcDbEntity
  8
Visible (ISO)
100
AcDbVertex
100
AcDb2dVertex
 10
534.9232783815018
 20
262.5382391856418
 30
0.0
  0
SEQEND
  5
522
330
51F
100
AcDbEntity
  8
Visible (ISO)
  0
POLYLINE
  5
52A
330
75
100
AcDbEntity
  8
Visible (ISO)
100
AcDb2dPolyline
 66
     1
 10
0.0
 20
0.0
 30
0.0
 70
   128
  0
VERTEX
  5
52B
330
52A
100
AcDbEntity
  8
Visible (ISO)
100
AcDbVertex
100
AcDb2dVertex
 10
534.9232783815018
 20
222.8054478267512
 30
0.0
  0
VERTEX
  5
52C
330
52A
100
AcDbEntity
  8
Visible (ISO)
100
AcDbVertex
100
AcDb2dVertex
 10
534.7872131816433
 20
222.6551882102066
 30
0.0
  0
VERTEX
  5
52E
330
52A
100
AcDbEntity
  8
Visible (ISO)
100
AcDbVertex
100
AcDb2dVertex
 10
534.6544050902377
 20
222.4885680132634
 30
0.0
  0
VERTEX
  5
52F
330
52A
100
AcDbEntity
  8
Visible (ISO)
100
AcDbVertex
100
AcDb2dVertex
 10
534.5280505242759
 20
222.3085118038597
 30
0.0
  0
VERTEX
  5
530
330
52A
100
AcDbEntity
  8
Visible (ISO)
100
AcDbVertex
100
AcDb2dVertex
 10
534.4108856571635
 20
222.11828243497
 30
0.0
  0
VERTEX
  5
531
330
52A
100
AcDbEntity
  8
Visible (ISO)
100
AcDbVertex
100
AcDb2dVertex
 10
534.3051493294933
 20
221.9214713814448
 30
0.0
  0
VERTEX
  5
532
330
52A
100
AcDbEntity
  8
Visible (ISO)
100
AcDbVertex
100
AcDb2dVertex
 10
534.2128763911115
 20
221.7217900794891
 30
0.0
  0
VERTEX
  5
533
330
52A
100
AcDbEntity
  8
Visible (ISO)
100
AcDbVertex
100
AcDb2dVertex
 10
534.1353818236915
 20
221.5233080205659
 30
0.0
  0
VERTEX
  5
534
330
52A
100
AcDbEntity
  8
Visible (ISO)
100
AcDbVertex
100
AcDb2dVertex
 10
534.0737395289334
 20
221.3301990564942
 30
0.0
  0
SEQEND
  5
52D
330
52A
100
AcDbEntity
  8
Visible (ISO)
  0
POLYLINE
  5
535
330
75
100
AcDbEntity
  8
Visible (ISO)
100
AcDb2dPolyline
 66
     1
 10
0.0
 20
0.0
 30
0.0
 70
   128
  0
VERTEX
  5
536
330
535
100
AcDbEntity
  8
Visible (ISO)
100
AcDbVertex
100
AcDb2dVertex
 10
500.6285993253721
 20
203.056455610737
 30
0.0
  0
VERTEX
  5
537
330
535
100
AcDbEntity
  8
Visible (ISO)
100
AcDbVertex
100
AcDb2dVertex
 10
500.4925349684504
 20
202.9061964796075
 30
0.0
  0
VERTEX
  5
539
330
535
100
AcDbEntity
  8
Visible (ISO)
100
AcDbVertex
100
AcDb2dVertex
 10
500.3597268770447
 20
202.7395762826643
 30
0.0
  0
VERTEX
  5
53A
330
535
100
AcDbEntity
  8
Visible (ISO)
100
AcDbVertex
100
AcDb2dVertex
 10
500.233371468146
 20
202.5595195878456
 30
0.0
  0
VERTEX
  5
53B
330
535
100
AcDbEntity
  8
Visible (ISO)
100
AcDbVertex
100
AcDb2dVertex
 10
500.1162053366282
 20
202.3692894908331
 30
0.0
  0
VERTEX
  5
53C
330
535
100
AcDbEntity
  8
Visible (ISO)
100
AcDbVertex
100
AcDb2dVertex
 10
500.0104715377688
 20
202.1724798935533
 30
0.0
  0
VERTEX
  5
53D
330
535
100
AcDbEntity
  8
Visible (ISO)
100
AcDbVertex
100
AcDb2dVertex
 10
499.9181977564501
 20
201.9727981061825
 30
0.0
  0
VERTEX
  5
53E
330
535
100
AcDbEntity
  8
Visible (ISO)
100
AcDbVertex
100
AcDb2dVertex
 10
499.8407036104985
 20
201.7743162899668
 30
0.0
  0
VERTEX
  5
53F
330
535
100
AcDbEntity
  8
Visible (ISO)
100
AcDbVertex
100
AcDb2dVertex
 10
499.7790596298665
 20
201.581206355065
 30
0.0
  0
SEQEND
  5
538
330
535
100
AcDbEntity
  8
Visible (ISO)
  0
ENDSEC
  0
SECTION
  2
OBJECTS
  0
DICTIONARY
  5
C
330
0
100
AcDbDictionary
281
     1
  3
ACAD_COLOR
350
6B
  3
ACAD_GROUP
350
D
  3
ACAD_LAYOUT
350
6A
  3
ACAD_MATERIAL
350
10
  3
ACAD_MLEADERSTYLE
350
6E
  3
ACAD_MLINESTYLE
350
67
  3
ACAD_PLOTSETTINGS
350
69
  3
ACAD_PLOTSTYLENAME
350
E
  3
ACAD_SCALELIST
350
3A
  3
ACAD_TABLESTYLE
350
6C
  3
ACAD_VISUALSTYLE
350
29
  3
ACDB_RECOMPOSE_DATA
350
54A
  3
AcDbVariableDictionary
350
540
  0
DICTIONARY
  5
6B
102
{ACAD_REACTORS
330
C
102
}
330
C
100
AcDbDictionary
281
     1
  0
DICTIONARY
  5
D
102
{ACAD_REACTORS
330
C
102
}
330
C
100
AcDbDictionary
281
     1
  0
DICTIONARY
  5
6A
102
{ACAD_REACTORS
330
C
102
}
330
C
100
AcDbDictionary
281
     1
  3
Layout1
350
74
  3
Layout2
350
7C
  3
Model
350
78
  0
DICTIONARY
  5
10
102
{ACAD_REACTORS
330
C
102
}
330
C
100
AcDbDictionary
281
     1
  3
ByBlock
350
19
  3
ByLayer
350
11
  3
Global
350
21
  0
DICTIONARY
  5
6E
102
{ACAD_REACTORS
330
C
102
}
330
C
100
AcDbDictionary
281
     1
  3
Standard
350
6F
  0
DICTIONARY
  5
67
102
{ACAD_REACTORS
330
C
102
}
330
C
100
AcDbDictionary
281
     1
  3
Standard
350
68
  0
DICTIONARY
  5
69
102
{ACAD_REACTORS
330
C
102
}
330
C
100
AcDbDictionary
281
     1
  0
ACDBDICTIONARYWDFLT
  5
E
102
{ACAD_REACTORS
330
C
102
}
330
C
100
AcDbDictionary
281
     1
  3
Normal
350
F
100
AcDbDictionaryWithDefault
340
F
  0
DICTIONARY
  5
3A
102
{ACAD_REACTORS
330
C
102
}
330
C
100
AcDbDictionary
281
     1
  3
A0
350
3B
  3
A1
350
3C
  3
A2
350
3D
  3
A3
350
3E
  3
A4
350
3F
  3
A5
350
40
  3
A6
350
41
  3
A7
350
42
  3
A8
350
43
  3
A9
350
44
  3
B0
350
45
  3
B1
350
46
  3
B2
350
47
  3
B3
350
48
  3
B4
350
49
  3
B5
350
4A
  3
B6
350
4B
  3
B7
350
4C
  3
B8
350
4D
  3
B9
350
4E
  3
C0
350
4F
  3
C1
350
50
  3
C2
350
51
  3
C3
350
52
  3
C4
350
53
  3
C5
350
54
  3
C6
350
55
  3
C7
350
56
  3
C8
350
57
  3
C9
350
58
  3
D0
350
59
  3
D1
350
5A
  3
D2
350
5B
  0
DICTIONARY
  5
6C
102
{ACAD_REACTORS
330
C
102
}
330
C
100
AcDbDictionary
281
     1
  3
Standard
350
6D
  0
DICTIONARY
  5
29
102
{ACAD_REACTORS
330
C
102
}
330
C
100
AcDbDictionary
281
     1
  3
2dWireframe
350
2F
  3
3D Hidden
350
31
  3
3dWireframe
350
30
  3
Basic
350
2E
  3
Brighten
350
35
  3
ColorChange
350
39
  3
Conceptual
350
32
  3
Dim
350
34
  3
Facepattern
350
38
  3
Flat
350
2A
  3
FlatWithEdges
350
2B
  3
Gouraud
350
2C
  3
GouraudWithEdges
350
2D
  3
Linepattern
350
37
  3
Realistic
350
33
  3
Thicken
350
36
  0
XRECORD
  5
54A
102
{ACAD_REACTORS
330
C
102
}
330
C
100
AcDbXrecord
280
     1
 90
        1
330
6D
  0
DICTIONARY
  5
540
102
{ACAD_REACTORS
330
C
102
}
330
C
100
AcDbDictionary
281
     1
  3
CANNOSCALE
350
544
  3
CMLEADERSTYLE
350
542
  3
CTABLESTYLE
350
541
  3
LAYEREVAL
350
546
  3
LAYERNOTIFY
350
547
  3
LIGHTINGUNITS
350
545
  3
MSLTSCALE
350
543
  0
LAYOUT
  5
74
102
{ACAD_REACTORS
330
6A
102
}
330
6A
100
AcDbPlotSettings
  1

  2

  4

  6

 40
0.0
 41
0.0
 42
0.0
 43
0.0
 44
0.0
 45
0.0
 46
0.0
 47
0.0
 48
0.0
 49
0.0
140
0.0
141
0.0
142
1.0
143
1.0
 70
   688
 72
     0
 73
     0
 74
     5
  7

 75
    16
147
1.0
 76
     0
 77
     2
 78
   300
148
0.0
149
0.0
100
AcDbLayout
  1
Layout1
 70
     1
 71
     1
 10
0.0
 20
0.0
 11
12.0
 21
9.0
 12
0.0
 22
0.0
 32
0.0
 14
0.0
 24
0.0
 34
0.0
 15
0.0
 25
0.0
 35
0.0
146
0.0
 13
0.0
 23
0.0
 33
0.0
 16
1.0
 26
0.0
 36
0.0
 17
0.0
 27
1.0
 37
0.0
 76
     0
330
71
  0
LAYOUT
  5
7C
102
{ACAD_REACTORS
330
6A
102
}
330
6A
100
AcDbPlotSettings
  1

  2

  4

  6

 40
0.0
 41
0.0
 42
0.0
 43
0.0
 44
0.0
 45
0.0
 46
0.0
 47
0.0
 48
0.0
 49
0.0
140
0.0
141
0.0
142
1.0
143
1.0
 70
   688
 72
     0
 73
     0
 74
     5
  7

 75
    16
147
1.0
 76
     0
 77
     2
 78
   300
148
0.0
149
0.0
100
AcDbLayout
  1
Layout2
 70
     1
 71
     2
 10
0.0
 20
0.0
 11
12.0
 21
9.0
 12
0.0
 22
0.0
 32
0.0
 14
0.0
 24
0.0
 34
0.0
 15
0.0
 25
0.0
 35
0.0
146
0.0
 13
0.0
 23
0.0
 33
0.0
 16
1.0
 26
0.0
 36
0.0
 17
0.0
 27
1.0
 37
0.0
 76
     0
330
79
  0
LAYOUT
  5
78
102
{ACAD_REACTORS
330
6A
102
}
330
6A
100
AcDbPlotSettings
  1

  2

  4

  6

 40
0.0
 41
0.0
 42
0.0
 43
0.0
 44
0.0
 45
0.0
 46
0.0
 47
0.0
 48
0.0
 49
0.0
140
0.0
141
0.0
142
1.0
143
1.0
 70
  1712
 72
     0
 73
     0
 74
     0
  7

 75
     0
147
1.0
 76
     0
 77
     2
 78
   300
148
0.0
149
0.0
100
AcDbLayout
  1
Model
 70
     1
 71
     0
 10
0.0
 20
0.0
 11
12.0
 21
9.0
 12
0.0
 22
0.0
 32
0.0
 14
0.0
 24
0.0
 34
0.0
 15
0.0
 25
0.0
 35
0.0
146
0.0
 13
0.0
 23
0.0
 33
0.0
 16
1.0
 26
0.0
 36
0.0
 17
0.0
 27
1.0
 37
0.0
 76
     0
330
75
  0
MATERIAL
  5
19
102
{ACAD_XDICTIONARY
360
1A
102
}
102
{ACAD_REACTORS
330
10
102
}
330
10
100
AcDbMaterial
  1
ByBlock
 72
     0
 43
0.0208333333333333
 43
0.0
 43
0.0
 43
0.0
 43
0.0
 43
0.0208333333333333
 43
0.0
 43
0.0
 43
0.0
 43
0.0
 43
1.0
 43
0.0
 43
0.0
 43
0.0
 43
0.0
 43
1.0
 77
     0
 47
0.0208333333333333
 47
0.0
 47
0.0
 47
0.0
 47
0.0
 47
0.0208333333333333
 47
0.0
 47
0.0
 47
0.0
 47
0.0
 47
1.0
 47
0.0
 47
0.0
 47
0.0
 47
0.0
 47
1.0
171
     0
 49
0.0208333333333333
 49
0.0
 49
0.0
 49
0.0
 49
0.0
 49
0.0208333333333333
 49
0.0
 49
0.0
 49
0.0
 49
0.0
 49
1.0
 49
0.0
 49
0.0
 49
0.0
 49
0.0
 49
1.0
175
     0
142
0.0208333333333333
142
0.0
142
0.0
142
0.0
142
0.0
142
0.0208333333333333
142
0.0
142
0.0
142
0.0
142
0.0
142
1.0
142
0.0
142
0.0
142
0.0
142
0.0
142
1.0
179
     0
144
0.0208333333333333
144
0.0
144
0.0
144
0.0
144
0.0
144
0.0208333333333333
144
0.0
144
0.0
144
0.0
144
0.0
144
1.0
144
0.0
144
0.0
144
0.0
144
0.0
144
1.0
147
0.0208333333333333
147
0.0
147
0.0
147
0.0
147
0.0
147
0.0208333333333333
147
0.0
147
0.0
147
0.0
147
0.0
147
1.0
147
0.0
147
0.0
147
0.0
147
0.0
147
1.0
  0
MATERIAL
  5
11
102
{ACAD_XDICTIONARY
360
12
102
}
102
{ACAD_REACTORS
330
10
102
}
330
10
100
AcDbMaterial
  1
ByLayer
 72
     0
 43
0.0208333333333333
 43
0.0
 43
0.0
 43
0.0
 43
0.0
 43
0.0208333333333333
 43
0.0
 43
0.0
 43
0.0
 43
0.0
 43
1.0
 43
0.0
 43
0.0
 43
0.0
 43
0.0
 43
1.0
 77
     0
 47
0.0208333333333333
 47
0.0
 47
0.0
 47
0.0
 47
0.0
 47
0.0208333333333333
 47
0.0
 47
0.0
 47
0.0
 47
0.0
 47
1.0
 47
0.0
 47
0.0
 47
0.0
 47
0.0
 47
1.0
171
     0
 49
0.0208333333333333
 49
0.0
 49
0.0
 49
0.0
 49
0.0
 49
0.0208333333333333
 49
0.0
 49
0.0
 49
0.0
 49
0.0
 49
1.0
 49
0.0
 49
0.0
 49
0.0
 49
0.0
 49
1.0
175
     0
142
0.0208333333333333
142
0.0
142
0.0
142
0.0
142
0.0
142
0.0208333333333333
142
0.0
142
0.0
142
0.0
142
0.0
142
1.0
142
0.0
142
0.0
142
0.0
142
0.0
142
1.0
179
     0
144
0.0208333333333333
144
0.0
144
0.0
144
0.0
144
0.0
144
0.0208333333333333
144
0.0
144
0.0
144
0.0
144
0.0
144
1.0
144
0.0
144
0.0
144
0.0
144
0.0
144
1.0
147
0.0208333333333333
147
0.0
147
0.0
147
0.0
147
0.0
147
0.0208333333333333
147
0.0
147
0.0
147
0.0
147
0.0
147
1.0
147
0.0
147
0.0
147
0.0
147
0.0
147
1.0
  0
MATERIAL
  5
21
102
{ACAD_XDICTIONARY
360
22
102
}
102
{ACAD_REACTORS
330
10
102
}
330
10
100
AcDbMaterial
  1
Global
 72
     0
 43
0.0208333333333333
 43
0.0
 43
0.0
 43
0.0
 43
0.0
 43
0.0208333333333333
 43
0.0
 43
0.0
 43
0.0
 43
0.0
 43
1.0
 43
0.0
 43
0.0
 43
0.0
 43
0.0
 43
1.0
 77
     0
 47
0.0208333333333333
 47
0.0
 47
0.0
 47
0.0
 47
0.0
 47
0.0208333333333333
 47
0.0
 47
0.0
 47
0.0
 47
0.0
 47
1.0
 47
0.0
 47
0.0
 47
0.0
 47
0.0
 47
1.0
171
     0
 49
0.0208333333333333
 49
0.0
 49
0.0
 49
0.0
 49
0.0
 49
0.0208333333333333
 49
0.0
 49
0.0
 49
0.0
 49
0.0
 49
1.0
 49
0.0
 49
0.0
 49
0.0
 49
0.0
 49
1.0
175
     0
142
0.0208333333333333
142
0.0
142
0.0
142
0.0
142
0.0
142
0.0208333333333333
142
0.0
142
0.0
142
0.0
142
0.0
142
1.0
142
0.0
142
0.0
142
0.0
142
0.0
142
1.0
179
     0
144
0.0208333333333333
144
0.0
144
0.0
144
0.0
144
0.0
144
0.0208333333333333
144
0.0
144
0.0
144
0.0
144
0.0
144
1.0
144
0.0
144
0.0
144
0.0
144
0.0
144
1.0
147
0.0208333333333333
147
0.0
147
0.0
147
0.0
147
0.0
147
0.0208333333333333
147
0.0
147
0.0
147
0.0
147
0.0
147
1.0
147
0.0
147
0.0
147
0.0
147
0.0
147
1.0
  0
MLEADERSTYLE
  5
6F
102
{ACAD_REACTORS
330
6E
102
}
330
6E
100
AcDbMLeaderStyle
170
     2
171
     1
172
     0
 90
        2
 40
0.0
 41
0.0
173
     1
 91
-1056964608
340
63
 92
       -2
290
     1
 42
0.09
291
     1
 43
0.36
  3
Standard
 44
0.18
300

342
5D
174
     1
178
     6
175
     1
176
     0
 93
-1056964608
 45
0.18
292
     0
297
     0
 46
0.18
 94
-1056964608
 47
1.0
 49
1.0
140
1.0
293
     1
141
0.0
294
     1
177
     0
142
1.0
295
     0
296
     0
143
0.125
1001
ACAD_MLEADERVER
1070
     2
  0
MLINESTYLE
  5
68
102
{ACAD_REACTORS
330
67
102
}
330
67
100
AcDbMlineStyle
  2
STANDARD
 70
     0
  3

 62
   256
 51
90.0
 52
90.0
 71
     2
 49
0.5
 62
   256
  6
BYLAYER
 49
-0.5
 62
   256
  6
BYLAYER
  0
ACDBPLACEHOLDER
  5
F
102
{ACAD_REACTORS
330
E
102
}
330
E
  0
SCALE
  5
3B
102
{ACAD_REACTORS
330
3A
102
}
330
3A
100
AcDbScale
 70
     0
300
1:1
140
1.0
141
1.0
290
     1
  0
SCALE
  5
3C
102
{ACAD_REACTORS
330
3A
102
}
330
3A
100
AcDbScale
 70
     0
300
1:2
140
1.0
141
2.0
290
     0
  0
SCALE
  5
3D
102
{ACAD_REACTORS
330
3A
102
}
330
3A
100
AcDbScale
 70
     0
300
1:4
140
1.0
141
4.0
290
     0
  0
SCALE
  5
3E
102
{ACAD_REACTORS
330
3A
102
}
330
3A
100
AcDbScale
 70
     0
300
1:5
140
1.0
141
5.0
290
     0
  0
SCALE
  5
3F
102
{ACAD_REACTORS
330
3A
102
}
330
3A
100
AcDbScale
 70
     0
300
1:8
140
1.0
141
8.0
290
     0
  0
SCALE
  5
40
102
{ACAD_REACTORS
330
3A
102
}
330
3A
100
AcDbScale
 70
     0
300
1:10
140
1.0
141
10.0
290
     0
  0
SCALE
  5
41
102
{ACAD_REACTORS
330
3A
102
}
330
3A
100
AcDbScale
 70
     0
300
1:16
140
1.0
141
16.0
290
     0
  0
SCALE
  5
42
102
{ACAD_REACTORS
330
3A
102
}
330
3A
100
AcDbScale
 70
     0
300
1:20
140
1.0
141
20.0
290
     0
  0
SCALE
  5
43
102
{ACAD_REACTORS
330
3A
102
}
330
3A
100
AcDbScale
 70
     0
300
1:30
140
1.0
141
30.0
290
     0
  0
SCALE
  5
44
102
{ACAD_REACTORS
330
3A
102
}
330
3A
100
AcDbScale
 70
     0
300
1:40
140
1.0
141
40.0
290
     0
  0
SCALE
  5
45
102
{ACAD_REACTORS
330
3A
102
}
330
3A
100
AcDbScale
 70
     0
300
1:50
140
1.0
141
50.0
290
     0
  0
SCALE
  5
46
102
{ACAD_REACTORS
330
3A
102
}
330
3A
100
AcDbScale
 70
     0
300
1:100
140
1.0
141
100.0
290
     0
  0
SCALE
  5
47
102
{ACAD_REACTORS
330
3A
102
}
330
3A
100
AcDbScale
 70
     0
300
2:1
140
2.0
141
1.0
290
     0
  0
SCALE
  5
48
102
{ACAD_REACTORS
330
3A
102
}
330
3A
100
AcDbScale
 70
     0
300
4:1
140
4.0
141
1.0
290
     0
  0
SCALE
  5
49
102
{ACAD_REACTORS
330
3A
102
}
330
3A
100
AcDbScale
 70
     0
300
8:1
140
8.0
141
1.0
290
     0
  0
SCALE
  5
4A
102
{ACAD_REACTORS
330
3A
102
}
330
3A
100
AcDbScale
 70
     0
300
10:1
140
10.0
141
1.0
290
     0
  0
SCALE
  5
4B
102
{ACAD_REACTORS
330
3A
102
}
330
3A
100
AcDbScale
 70
     0
300
100:1
140
100.0
141
1.0
290
     0
  0
SCALE
  5
4C
102
{ACAD_REACTORS
330
3A
102
}
330
3A
100
AcDbScale
 70
     0
300
1/128" = 1'-0"
140
0.0078125
141
12.0
290
     0
  0
SCALE
  5
4D
102
{ACAD_REACTORS
330
3A
102
}
330
3A
100
AcDbScale
 70
     0
300
1/64" = 1'-0"
140
0.015625
141
12.0
290
     0
  0
SCALE
  5
4E
102
{ACAD_REACTORS
330
3A
102
}
330
3A
100
AcDbScale
 70
     0
300
1/32" = 1'-0"
140
0.03125
141
12.0
290
     0
  0
SCALE
  5
4F
102
{ACAD_REACTORS
330
3A
102
}
330
3A
100
AcDbScale
 70
     0
300
1/16" = 1'-0"
140
0.0625
141
12.0
290
     0
  0
SCALE
  5
50
102
{ACAD_REACTORS
330
3A
102
}
330
3A
100
AcDbScale
 70
     0
300
3/32" = 1'-0"
140
0.09375
141
12.0
290
     0
  0
SCALE
  5
51
102
{ACAD_REACTORS
330
3A
102
}
330
3A
100
AcDbScale
 70
     0
300
1/8" = 1'-0"
140
0.125
141
12.0
290
     0
  0
SCALE
  5
52
102
{ACAD_REACTORS
330
3A
102
}
330
3A
100
AcDbScale
 70
     0
300
3/16" = 1'-0"
140
0.1875
141
12.0
290
     0
  0
SCALE
  5
53
102
{ACAD_REACTORS
330
3A
102
}
330
3A
100
AcDbScale
 70
     0
300
1/4" = 1'-0"
140
0.25
141
12.0
290
     0
  0
SCALE
  5
54
102
{ACAD_REACTORS
330
3A
102
}
330
3A
100
AcDbScale
 70
     0
300
3/8" = 1'-0"
140
0.375
141
12.0
290
     0
  0
SCALE
  5
55
102
{ACAD_REACTORS
330
3A
102
}
330
3A
100
AcDbScale
 70
     0
300
1/2" = 1'-0"
140
0.5
141
12.0
290
     0
  0
SCALE
  5
56
102
{ACAD_REACTORS
330
3A
102
}
330
3A
100
AcDbScale
 70
     0
300
3/4" = 1'-0"
140
0.75
141
12.0
290
     0
  0
SCALE
  5
57
102
{ACAD_REACTORS
330
3A
102
}
330
3A
100
AcDbScale
 70
     0
300
1" = 1'-0"
140
1.0
141
12.0
290
     0
  0
SCALE
  5
58
102
{ACAD_REACTORS
330
3A
102
}
330
3A
100
AcDbScale
 70
     0
300
1-1/2" = 1'-0"
140
1.5
141
12.0
290
     0
  0
SCALE
  5
59
102
{ACAD_REACTORS
330
3A
102
}
330
3A
100
AcDbScale
 70
     0
300
3" = 1'-0"
140
3.0
141
12.0
290
     0
  0
SCALE
  5
5A
102
{ACAD_REACTORS
330
3A
102
}
330
3A
100
AcDbScale
 70
     0
300
6" = 1'-0"
140
6.0
141
12.0
290
     0
  0
SCALE
  5
5B
102
{ACAD_REACTORS
330
3A
102
}
330
3A
100
AcDbScale
 70
     0
300
1'-0" = 1'-0"
140
12.0
141
12.0
290
     0
  0
TABLESTYLE
  5
6D
102
{ACAD_XDICTIONARY
360
548
102
}
102
{ACAD_REACTORS
330
6C
102
}
330
6C
100
AcDbTableStyle
  3
Standard
 70
     0
 71
     0
 40
0.06
 41
0.06
280
     0
281
     0
  7
Standard
140
0.18
170
     2
 62
     0
 63
     7
283
     0
274
    -2
284
     1
 64
     0
275
    -2
285
     1
 65
     0
276
    -2
286
     1
 66
     0
277
    -2
287
     1
 67
     0
278
    -2
288
     1
 68
     0
279
    -2
289
     1
 69
     0
  7
Standard
140
0.25
170
     5
 62
     0
 63
     7
283
     0
274
    -2
284
     1
 64
     0
275
    -2
285
     1
 65
     0
276
    -2
286
     1
 66
     0
277
    -2
287
     1
 67
     0
278
    -2
288
     1
 68
     0
279
    -2
289
     1
 69
     0
  7
Standard
140
0.18
170
     5
 62
     0
 63
     7
283
     0
274
    -2
284
     1
 64
     0
275
    -2
285
     1
 65
     0
276
    -2
286
     1
 66
     0
277
    -2
287
     1
 67
     0
278
    -2
288
     1
 68
     0
279
    -2
289
     1
 69
     0
  0
VISUALSTYLE
  5
2F
102
{ACAD_REACTORS
330
29
102
}
330
29
100
AcDbVisualStyle
  2
2dWireframe
 70
     4
 71
     0
 72
     2
 73
     0
 90
        0
 40
-0.6
 41
-30.0
 62
     5
 63
     7
421
 16777215
 74
     1
 91
        4
 64
     7
 65
   257
 75
     1
175
     1
 42
1.0
 92
        0
 66
   257
 43
1.0
 76
     1
 77
     6
 78
     2
 67
     7
 79
     5
170
     0
171
     0
290
     0
174
     0
 93
        1
 44
0.0
173
     0
291
     0
 45
0.0
1001
ACAD
1000
AcDbSavedByObjectVersion
1070
     0
  0
VISUALSTYLE
  5
31
102
{ACAD_REACTORS
330
29
102
}
330
29
100
AcDbVisualStyle
  2
3D Hidden
 70
     6
 71
     1
 72
     2
 73
     2
 90
        0
 40
-0.6
 41
-30.0
 62
     5
 63
     7
421
 16777215
 74
     2
 91
        2
 64
     7
 65
   257
 75
     2
175
     1
 42
40.0
 92
        0
 66
   257
 43
1.0
 76
     1
 77
     6
 78
     2
 67
     7
 79
     3
170
     0
171
     0
290
     0
174
     0
 93
        1
 44
0.0
173
     0
291
     0
 45
0.0
1001
ACAD
1000
AcDbSavedByObjectVersion
1070
     0
  0
VISUALSTYLE
  5
30
102
{ACAD_REACTORS
330
29
102
}
330
29
100
AcDbVisualStyle
  2
3dWireframe
 70
     5
 71
     0
 72
     2
 73
     0
 90
        0
 40
-0.6
 41
-30.0
 62
     5
 63
     7
421
 16777215
 74
     1
 91
        4
 64
     7
 65
   257
 75
     1
175
     1
 42
1.0
 92
        0
 66
   257
 43
1.0
 76
     1
 77
     6
 78
     2
 67
     7
 79
     5
170
     0
171
     0
290
     0
174
     0
 93
        1
 44
0.0
173
     0
291
     0
 45
0.0
1001
ACAD
1000
AcDbSavedByObjectVersion
1070
     0
  0
VISUALSTYLE
  5
2E
102
{ACAD_REACTORS
330
29
102
}
330
29
100
AcDbVisualStyle
  2
Basic
 70
     7
 71
     1
 72
     0
 73
     1
 90
        0
 40
-0.6
 41
-30.0
 62
     5
 63
     7
421
 16777215
 74
     0
 91
        4
 64
     7
 65
   257
 75
     1
175
     1
 42
1.0
 92
        8
 66
     7
 43
1.0
 76
     1
 77
     6
 78
     2
 67
     7
 79
     5
170
     0
171
     0
290
     0
174
     0
 93
        1
 44
0.0
173
     0
291
     1
 45
0.0
1001
ACAD
1000
AcDbSavedByObjectVersion
1070
     0
  0
VISUALSTYLE
  5
35
102
{ACAD_REACTORS
330
29
102
}
330
29
100
AcDbVisualStyle
  2
Brighten
 70
    12
 71
     2
 72
     2
 73
     0
 90
        0
 40
-0.6
 41
-30.0
 62
     5
 63
     7
421
 16777215
 74
     1
 91
        4
 64
     7
 65
   257
 75
     1
175
     1
 42
1.0
 92
        8
 66
     7
 43
1.0
 76
     1
 77
     6
 78
     2
 67
     7
 79
     5
170
     0
171
     0
290
     0
174
     0
 93
        1
 44
50.0
173
     0
291
     1
 45
0.0
1001
ACAD
1000
AcDbSavedByObjectVersion
1070
     0
  0
VISUALSTYLE
  5
39
102
{ACAD_REACTORS
330
29
102
}
330
29
100
AcDbVisualStyle
  2
ColorChange
 70
    16
 71
     2
 72
     2
 73
     3
 90
        0
 40
-0.6
 41
-30.0
 62
     5
 63
     8
421
  8421504
 74
     1
 91
        4
 64
     7
 65
   257
 75
     1
175
     1
 42
1.0
 92
        8
 66
     8
424
  8421504
 43
1.0
 76
     1
 77
     6
 78
     2
 67
     7
 79
     5
170
     0
171
     0
290
     0
174
     0
 93
        1
 44
0.0
173
     0
291
     1
 45
0.0
1001
ACAD
1000
AcDbSavedByObjectVersion
1070
     0
  0
VISUALSTYLE
  5
32
102
{ACAD_REACTORS
330
29
102
}
330
29
100
AcDbVisualStyle
  2
Conceptual
 70
     9
 71
     3
 72
     2
 73
     0
 90
        0
 40
-0.6
 41
-30.0
 62
     5
 63
     7
421
 16777215
 74
     2
 91
        2
 64
     7
 65
   257
 75
     1
175
     1
 42
40.0
 92
        8
 66
     7
 43
1.0
 76
     1
 77
     6
 78
     2
 67
     7
 79
     3
170
     0
171
     0
290
     0
174
     0
 93
        1
 44
0.0
173
     0
291
     0
 45
0.0
1001
ACAD
1000
AcDbSavedByObjectVersion
1070
     0
  0
VISUALSTYLE
  5
34
102
{ACAD_REACTORS
330
29
102
}
330
29
100
AcDbVisualStyle
  2
Dim
 70
    11
 71
     2
 72
     2
 73
     0
 90
        0
 40
-0.6
 41
-30.0
 62
     5
 63
     7
421
 16777215
 74
     1
 91
        4
 64
     7
 65
   257
 75
     1
175
     1
 42
1.0
 92
        8
 66
     7
 43
1.0
 76
     1
 77
     6
 78
     2
 67
     7
 79
     5
170
     0
171
     0
290
     0
174
     0
 93
        1
 44
-50.0
173
     0
291
     1
 45
0.0
1001
ACAD
1000
AcDbSavedByObjectVersion
1070
     0
  0
VISUALSTYLE
  5
38
102
{ACAD_REACTORS
330
29
102
}
330
29
100
AcDbVisualStyle
  2
Facepattern
 70
    15
 71
     2
 72
     2
 73
     0
 90
        0
 40
-0.6
 41
-30.0
 62
     5
 63
     7
421
 16777215
 74
     1
 91
        4
 64
     7
 65
   257
 75
     1
175
     1
 42
1.0
 92
        8
 66
     7
 43
1.0
 76
     1
 77
     6
 78
     2
 67
     7
 79
     5
170
     0
171
     0
290
     0
174
     0
 93
        1
 44
0.0
173
     0
291
     1
 45
0.0
1001
ACAD
1000
AcDbSavedByObjectVersion
1070
     0
  0
VISUALSTYLE
  5
2A
102
{ACAD_REACTORS
330
29
102
}
330
29
100
AcDbVisualStyle
  2
Flat
 70
     0
 71
     2
 72
     1
 73
     1
 90
        2
 40
-0.6
 41
30.0
 62
     5
 63
     7
421
 16777215
 74
     0
 91
        4
 64
     7
 65
   257
 75
     1
175
     1
 42
1.0
 92
        8
 66
     7
 43
1.0
 76
     1
 77
     6
 78
     2
 67
     7
 79
     5
170
     0
171
     0
290
     0
174
     0
 93
       13
 44
0.0
173
     0
291
     1
 45
0.0
1001
ACAD
1000
AcDbSavedByObjectVersion
1070
     0
  0
VISUALSTYLE
  5
2B
102
{ACAD_REACTORS
330
29
102
}
330
29
100
AcDbVisualStyle
  2
FlatWithEdges
 70
     1
 71
     2
 72
     1
 73
     1
 90
        2
 40
-0.6
 41
30.0
 62
     5
 63
     7
421
 16777215
 74
     1
 91
        4
 64
     7
 65
   257
 75
     1
175
     1
 42
1.0
 92
        0
 66
   257
 43
1.0
 76
     1
 77
     6
 78
     2
 67
     7
 79
     5
170
     0
171
     0
290
     0
174
     0
 93
       13
 44
0.0
173
     0
291
     1
 45
0.0
1001
ACAD
1000
AcDbSavedByObjectVersion
1070
     0
  0
VISUALSTYLE
  5
2C
102
{ACAD_REACTORS
330
29
102
}
330
29
100
AcDbVisualStyle
  2
Gouraud
 70
     2
 71
     2
 72
     2
 73
     1
 90
        2
 40
-0.6
 41
30.0
 62
     5
 63
     7
421
 16777215
 74
     0
 91
        4
 64
     7
 65
   257
 75
     1
175
     1
 42
1.0
 92
        0
 66
     7
 43
1.0
 76
     1
 77
     6
 78
     2
 67
     7
 79
     5
170
     0
171
     0
290
     0
174
     0
 93
       13
 44
0.0
173
     0
291
     1
 45
0.0
1001
ACAD
1000
AcDbSavedByObjectVersion
1070
     0
  0
VISUALSTYLE
  5
2D
102
{ACAD_REACTORS
330
29
102
}
330
29
100
AcDbVisualStyle
  2
GouraudWithEdges
 70
     3
 71
     2
 72
     2
 73
     1
 90
        2
 40
-0.6
 41
30.0
 62
     5
 63
     7
421
 16777215
 74
     1
 91
        4
 64
     7
 65
   257
 75
     1
175
     1
 42
1.0
 92
        0
 66
   257
 43
1.0
 76
     1
 77
     6
 78
     2
 67
     7
 79
     5
170
     0
171
     0
290
     0
174
     0
 93
       13
 44
0.0
173
     0
291
     1
 45
0.0
1001
ACAD
1000
AcDbSavedByObjectVersion
1070
     0
  0
VISUALSTYLE
  5
37
102
{ACAD_REACTORS
330
29
102
}
330
29
100
AcDbVisualStyle
  2
Linepattern
 70
    14
 71
     2
 72
     2
 73
     0
 90
        0
 40
-0.6
 41
-30.0
 62
     5
 63
     7
421
 16777215
 74
     1
 91
        4
 64
     7
 65
   257
 75
     7
175
     7
 42
1.0
 92
        8
 66
     7
 43
1.0
 76
     1
 77
     6
 78
     2
 67
     7
 79
     5
170
     0
171
     0
290
     0
174
     0
 93
        1
 44
0.0
173
     0
291
     1
 45
0.0
1001
ACAD
1000
AcDbSavedByObjectVersion
1070
     0
  0
VISUALSTYLE
  5
33
102
{ACAD_REACTORS
330
29
102
}
330
29
100
AcDbVisualStyle
  2
Realistic
 70
     8
 71
     2
 72
     2
 73
     0
 90
        0
 40
-0.6
 41
-30.0
 62
     5
 63
     7
421
 16777215
 74
     1
 91
        0
 64
     7
 65
   257
 75
     1
175
     1
 42
1.0
 92
        8
 66
     8
424
  7895160
 43
1.0
 76
     1
 77
     6
 78
     2
 67
     7
 79
     5
170
     0
171
     0
290
     0
174
     0
 93
       13
 44
0.0
173
     0
291
     0
 45
0.0
1001
ACAD
1000
AcDbSavedByObjectVersion
1070
     0
  0
VISUALSTYLE
  5
36
102
{ACAD_REACTORS
330
29
102
}
330
29
100
AcDbVisualStyle
  2
Thicken
 70
    13
 71
     2
 72
     2
 73
     0
 90
        0
 40
-0.6
 41
-30.0
 62
     5
 63
     7
421
 16777215
 74
     1
 91
        4
 64
     7
 65
   257
 75
     1
175
     1
 42
1.0
 92
       12
 66
     7
 43
1.0
 76
     1
 77
     6
 78
     2
 67
     7
 79
     5
170
     0
171
     0
290
     0
174
     0
 93
        1
 44
0.0
173
     0
291
     1
 45
0.0
1001
ACAD
1000
AcDbSavedByObjectVersion
1070
     0
  0
DICTIONARYVAR
  5
544
102
{ACAD_REACTORS
330
540
102
}
330
540
100
DictionaryVariables
280
     0
  1
1:1
  0
DICTIONARYVAR
  5
542
102
{ACAD_REACTORS
330
540
102
}
330
540
100
DictionaryVariables
280
     0
  1
STANDARD
  0
DICTIONARYVAR
  5
541
102
{ACAD_REACTORS
330
540
102
}
330
540
100
DictionaryVariables
280
     0
  1
STANDARD
  0
DICTIONARYVAR
  5
546
102
{ACAD_REACTORS
330
540
102
}
330
540
100
DictionaryVariables
280
     0
  1
0
  0
DICTIONARYVAR
  5
547
102
{ACAD_REACTORS
330
540
102
}
330
540
100
DictionaryVariables
280
     0
  1
0
  0
DICTIONARYVAR
  5
545
102
{ACAD_REACTORS
330
540
102
}
330
540
100
DictionaryVariables
280
     0
  1
2
  0
DICTIONARYVAR
  5
543
102
{ACAD_REACTORS
330
540
102
}
330
540
100
DictionaryVariables
280
     0
  1
1
  0
DICTIONARY
  5
1A
330
19
100
AcDbDictionary
280
     1
281
     1
  3
ACAD_XREC_ROUNDTRIP
360
54C
  3
BUMPTILE
360
1C
  3
DIFFUSETILE
360
1B
  3
OPACITYTILE
360
1F
  3
REFLECTIONTILE
360
1E
  3
REFRACTIONTILE
360
20
  3
SPECULARTILE
360
1D
  0
DICTIONARY
  5
12
330
11
100
AcDbDictionary
280
     1
281
     1
  3
ACAD_XREC_ROUNDTRIP
360
54B
  3
BUMPTILE
360
14
  3
DIFFUSETILE
360
13
  3
OPACITYTILE
360
17
  3
REFLECTIONTILE
360
16
  3
REFRACTIONTILE
360
18
  3
SPECULARTILE
360
15
  0
DICTIONARY
  5
22
330
21
100
AcDbDictionary
280
     1
281
     1
  3
ACAD_XREC_ROUNDTRIP
360
54D
  3
BUMPTILE
360
24
  3
DIFFUSETILE
360
23
  3
OPACITYTILE
360
27
  3
REFLECTIONTILE
360
26
  3
REFRACTIONTILE
360
28
  3
SPECULARTILE
360
25
  0
DICTIONARY
  5
548
330
6D
100
AcDbDictionary
280
     1
281
     1
  3
ACAD_ROUNDTRIP_2008_TABLESTYLE_CELLSTYLEMAP
360
549
  3
ACAD_XREC_ROUNDTRIP
360
54E
  0
XRECORD
  5
54C
102
{ACAD_REACTORS
330
1A
102
}
330
1A
100
AcDbXrecord
280
     1
102
MATERIAL
148
0.0
149
0.0
149
0.0
 93
        0
 94
      127
282
     0
 72
     0
 77
     0
171
     0
175
     0
179
     0
273
     0
  0
XRECORD
  5
1C
102
{ACAD_REACTORS
330
1A
102
}
330
1A
100
AcDbXrecord
280
     1
270
     1
271
     1
  0
XRECORD
  5
1B
102
{ACAD_REACTORS
330
1A
102
}
330
1A
100
AcDbXrecord
280
     1
270
     1
271
     1
  0
XRECORD
  5
1F
102
{ACAD_REACTORS
330
1A
102
}
330
1A
100
AcDbXrecord
280
     1
270
     1
271
     1
  0
XRECORD
  5
1E
102
{ACAD_REACTORS
330
1A
102
}
330
1A
100
AcDbXrecord
280
     1
270
     1
271
     1
  0
XRECORD
  5
20
102
{ACAD_REACTORS
330
1A
102
}
330
1A
100
AcDbXrecord
280
     1
270
     1
271
     1
  0
XRECORD
  5
1D
102
{ACAD_REACTORS
330
1A
102
}
330
1A
100
AcDbXrecord
280
     1
270
     1
271
     1
  0
XRECORD
  5
54B
102
{ACAD_REACTORS
330
12
102
}
330
12
100
AcDbXrecord
280
     1
102
MATERIAL
148
0.0
149
0.0
149
0.0
 93
        0
 94
      127
282
     0
 72
     0
 77
     0
171
     0
175
     0
179
     0
273
     0
  0
XRECORD
  5
14
102
{ACAD_REACTORS
330
12
102
}
330
12
100
AcDbXrecord
280
     1
270
     1
271
     1
  0
XRECORD
  5
13
102
{ACAD_REACTORS
330
12
102
}
330
12
100
AcDbXrecord
280
     1
270
     1
271
     1
  0
XRECORD
  5
17
102
{ACAD_REACTORS
330
12
102
}
330
12
100
AcDbXrecord
280
     1
270
     1
271
     1
  0
XRECORD
  5
16
102
{ACAD_REACTORS
330
12
102
}
330
12
100
AcDbXrecord
280
     1
270
     1
271
     1
  0
XRECORD
  5
18
102
{ACAD_REACTORS
330
12
102
}
330
12
100
AcDbXrecord
280
     1
270
     1
271
     1
  0
XRECORD
  5
15
102
{ACAD_REACTORS
330
12
102
}
330
12
100
AcDbXrecord
280
     1
270
     1
271
     1
  0
XRECORD
  5
54D
102
{ACAD_REACTORS
330
22
102
}
330
22
100
AcDbXrecord
280
     1
102
MATERIAL
148
0.0
149
0.0
149
0.0
 93
        0
 94
      127
282
     0
 72
     0
 77
     0
171
     0
175
     0
179
     0
273
     0
  0
XRECORD
  5
24
102
{ACAD_REACTORS
330
22
102
}
330
22
100
AcDbXrecord
280
     1
270
     1
271
     1
  0
XRECORD
  5
23
102
{ACAD_REACTORS
330
22
102
}
330
22
100
AcDbXrecord
280
     1
270
     1
271
     1
  0
XRECORD
  5
27
102
{ACAD_REACTORS
330
22
102
}
330
22
100
AcDbXrecord
280
     1
270
     1
271
     1
  0
XRECORD
  5
26
102
{ACAD_REACTORS
330
22
102
}
330
22
100
AcDbXrecord
280
     1
270
     1
271
     1
  0
XRECORD
  5
28
102
{ACAD_REACTORS
330
22
102
}
330
22
100
AcDbXrecord
280
     1
270
     1
271
     1
  0
XRECORD
  5
25
102
{ACAD_REACTORS
330
22
102
}
330
22
100
AcDbXrecord
280
     1
270
     1
271
     1
  0
CELLSTYLEMAP
  5
549
102
{ACAD_REACTORS
330
548
102
}
330
548
100
AcDbCellStyleMap
 90
        3
300
CELLSTYLE
  1
TABLEFORMAT_BEGIN
 90
        5
170
     1
 91
        0
 92
    32768
 62
   257
 93
        1
300
CONTENTFORMAT
  1
CONTENTFORMAT_BEGIN
 90
        0
 91
        0
 92
      512
 93
        0
300

 40
0.0
140
1.0
 94
        5
 62
     0
340
5D
144
0.25
309
CONTENTFORMAT_END
171
     0
 94
        0
309
TABLEFORMAT_END
  1
CELLSTYLE_BEGIN
 90
        1
 91
        1
300
_TITLE
309
CELLSTYLE_END
300
CELLSTYLE
  1
TABLEFORMAT_BEGIN
 90
        5
170
     1
 91
        0
 92
        0
 62
   257
 93
        1
300
CONTENTFORMAT
  1
CONTENTFORMAT_BEGIN
 90
        0
 91
        0
 92
      512
 93
        0
300

 40
0.0
140
1.0
 94
        5
 62
     0
340
5D
144
0.18
309
CONTENTFORMAT_END
171
     0
 94
        0
309
TABLEFORMAT_END
  1
CELLSTYLE_BEGIN
 90
        2
 91
        1
300
_HEADER
309
CELLSTYLE_END
300
CELLSTYLE
  1
TABLEFORMAT_BEGIN
 90
        5
170
     1
 91
        0
 92
        0
 62
   257
 93
        1
300
CONTENTFORMAT
  1
CONTENTFORMAT_BEGIN
 90
        0
 91
        0
 92
      512
 93
        0
300

 40
0.0
140
1.0
 94
        2
 62
     0
340
5D
144
0.18
309
CONTENTFORMAT_END
171
     0
 94
        0
309
TABLEFORMAT_END
  1
CELLSTYLE_BEGIN
 90
        3
 91
        2
300
_DATA
309
CELLSTYLE_END
  0
XRECORD
  5
54E
102
{ACAD_REACTORS
330
548
102
}
330
548
100
AcDbXrecord
280
     1
102
ACAD_ROUNDTRIP_PRE2007_TABLESTYLE
 90
      512
 91
        0
  1

 92
      512
 93
        0
  2

 94
      512
 95
        0
  3

  0
ENDSEC
  0
EOF
