ISO-10303-21;
HEADER;
FILE_DESCRIPTION((''),'2;1');
FILE_NAME('PRK1-5_3A_AP','2019-07-19T',('Christian Carl'),(''),
'CREO PARAMETRIC BY PTC INC, 2016380','CREO PARAMETRIC BY PTC INC, 2016380','');
FILE_SCHEMA(('CONFIG_CONTROL_DESIGN'));
ENDSEC;
DATA;
#2=CARTESIAN_POINT('',(-2.22E1,8.E-1,0.E0));
#3=DIRECTION('',(0.E0,0.E0,-1.E0));
#4=DIRECTION('',(0.E0,-1.E0,0.E0));
#5=AXIS2_PLACEMENT_3D('',#2,#3,#4);
#7=DIRECTION('',(1.E0,0.E0,0.E0));
#8=VECTOR('',#7,5.35E1);
#9=CARTESIAN_POINT('',(-2.22E1,5.E-1,0.E0));
#10=LINE('',#9,#8);
#11=CARTESIAN_POINT('',(3.13E1,8.E-1,0.E0));
#12=DIRECTION('',(0.E0,0.E0,-1.E0));
#13=DIRECTION('',(1.E0,0.E0,0.E0));
#14=AXIS2_PLACEMENT_3D('',#11,#12,#13);
#16=DIRECTION('',(0.E0,1.E0,0.E0));
#17=VECTOR('',#16,1.226476348052E1);
#18=CARTESIAN_POINT('',(3.16E1,8.E-1,0.E0));
#19=LINE('',#18,#17);
#20=CARTESIAN_POINT('',(3.13E1,1.306476348052E1,0.E0));
#21=DIRECTION('',(0.E0,0.E0,1.E0));
#22=DIRECTION('',(1.E0,0.E0,0.E0));
#23=AXIS2_PLACEMENT_3D('',#20,#21,#22);
#25=DIRECTION('',(-3.489949670250E-2,9.993908270191E-1,0.E0));
#26=VECTOR('',#25,1.114202393941E1);
#27=CARTESIAN_POINT('',(3.159981724811E1,1.307523332953E1,0.E0));
#28=LINE('',#27,#26);
#29=CARTESIAN_POINT('',(3.091114897227E1,2.42E1,0.E0));
#30=DIRECTION('',(0.E0,0.E0,-1.E0));
#31=DIRECTION('',(1.184237892933E-14,1.E0,0.E0));
#32=AXIS2_PLACEMENT_3D('',#29,#30,#31);
#34=DIRECTION('',(-1.E0,0.E0,0.E0));
#35=VECTOR('',#34,5.272229794453E1);
#36=CARTESIAN_POINT('',(3.091114897227E1,2.45E1,0.E0));
#37=LINE('',#36,#35);
#38=CARTESIAN_POINT('',(-2.181114897227E1,2.42E1,0.E0));
#39=DIRECTION('',(0.E0,0.E0,-1.E0));
#40=DIRECTION('',(-9.993908270191E-1,3.489949670250E-2,0.E0));
#41=AXIS2_PLACEMENT_3D('',#38,#39,#40);
#43=CARTESIAN_POINT('',(-2.22E1,1.306476348052E1,0.E0));
#44=DIRECTION('',(0.E0,0.E0,1.E0));
#45=DIRECTION('',(-9.993908270191E-1,3.489949670250E-2,0.E0));
#46=AXIS2_PLACEMENT_3D('',#43,#44,#45);
#48=DIRECTION('',(0.E0,0.E0,-1.E0));
#49=VECTOR('',#48,1.5E0);
#50=CARTESIAN_POINT('',(-2.25E1,8.E-1,1.5E0));
#51=LINE('',#50,#49);
#52=DIRECTION('',(0.E0,1.E0,0.E0));
#53=VECTOR('',#52,1.226476348052E1);
#54=CARTESIAN_POINT('',(-2.25E1,8.E-1,0.E0));
#55=LINE('',#54,#53);
#56=DIRECTION('',(0.E0,0.E0,-1.E0));
#57=VECTOR('',#56,1.5E0);
#58=CARTESIAN_POINT('',(-2.25E1,1.306476348052E1,1.5E0));
#59=LINE('',#58,#57);
#60=DIRECTION('',(0.E0,0.E0,-1.E0));
#61=VECTOR('',#60,1.5E0);
#62=CARTESIAN_POINT('',(-2.249981724811E1,1.307523332953E1,1.5E0));
#63=LINE('',#62,#61);
#64=DIRECTION('',(3.489949670250E-2,9.993908270191E-1,0.E0));
#65=VECTOR('',#64,1.114202393941E1);
#66=CARTESIAN_POINT('',(-2.249981724811E1,1.307523332953E1,0.E0));
#67=LINE('',#66,#65);
#68=DIRECTION('',(0.E0,0.E0,1.E0));
#69=VECTOR('',#68,1.5E0);
#70=CARTESIAN_POINT('',(-2.211096622037E1,2.421046984901E1,0.E0));
#71=LINE('',#70,#69);
#72=CARTESIAN_POINT('',(-2.22E1,8.E-1,1.5E0));
#73=DIRECTION('',(0.E0,0.E0,1.E0));
#74=DIRECTION('',(-1.E0,0.E0,0.E0));
#75=AXIS2_PLACEMENT_3D('',#72,#73,#74);
#77=DIRECTION('',(0.E0,1.E0,0.E0));
#78=VECTOR('',#77,1.226476348052E1);
#79=CARTESIAN_POINT('',(-2.25E1,8.E-1,1.5E0));
#80=LINE('',#79,#78);
#81=CARTESIAN_POINT('',(-2.22E1,1.306476348052E1,1.5E0));
#82=DIRECTION('',(0.E0,0.E0,-1.E0));
#83=DIRECTION('',(-1.E0,0.E0,0.E0));
#84=AXIS2_PLACEMENT_3D('',#81,#82,#83);
#86=DIRECTION('',(3.489949670250E-2,9.993908270191E-1,0.E0));
#87=VECTOR('',#86,1.114202393941E1);
#88=CARTESIAN_POINT('',(-2.249981724811E1,1.307523332953E1,1.5E0));
#89=LINE('',#88,#87);
#90=CARTESIAN_POINT('',(-2.181114897227E1,2.42E1,1.5E0));
#91=DIRECTION('',(0.E0,0.E0,1.E0));
#92=DIRECTION('',(-1.184237892933E-14,1.E0,0.E0));
#93=AXIS2_PLACEMENT_3D('',#90,#91,#92);
#95=DIRECTION('',(-1.E0,0.E0,0.E0));
#96=VECTOR('',#95,5.272229794453E1);
#97=CARTESIAN_POINT('',(3.091114897227E1,2.45E1,1.5E0));
#98=LINE('',#97,#96);
#99=CARTESIAN_POINT('',(3.091114897227E1,2.42E1,1.5E0));
#100=DIRECTION('',(0.E0,0.E0,1.E0));
#101=DIRECTION('',(9.993908270191E-1,3.489949670250E-2,0.E0));
#102=AXIS2_PLACEMENT_3D('',#99,#100,#101);
#104=DIRECTION('',(-3.489949670250E-2,9.993908270191E-1,0.E0));
#105=VECTOR('',#104,1.114202393941E1);
#106=CARTESIAN_POINT('',(3.159981724811E1,1.307523332953E1,1.5E0));
#107=LINE('',#106,#105);
#108=CARTESIAN_POINT('',(3.13E1,1.306476348052E1,1.5E0));
#109=DIRECTION('',(0.E0,0.E0,-1.E0));
#110=DIRECTION('',(9.993908270191E-1,3.489949670250E-2,0.E0));
#111=AXIS2_PLACEMENT_3D('',#108,#109,#110);
#113=DIRECTION('',(0.E0,1.E0,0.E0));
#114=VECTOR('',#113,1.226476348052E1);
#115=CARTESIAN_POINT('',(3.16E1,8.E-1,1.5E0));
#116=LINE('',#115,#114);
#117=CARTESIAN_POINT('',(3.13E1,8.E-1,1.5E0));
#118=DIRECTION('',(0.E0,0.E0,1.E0));
#119=DIRECTION('',(1.184237892934E-14,-1.E0,0.E0));
#120=AXIS2_PLACEMENT_3D('',#117,#118,#119);
#122=DIRECTION('',(1.E0,0.E0,0.E0));
#123=VECTOR('',#122,5.35E1);
#124=CARTESIAN_POINT('',(-2.22E1,5.E-1,1.5E0));
#125=LINE('',#124,#123);
#126=CARTESIAN_POINT('',(0.E0,1.255E1,1.5E0));
#127=DIRECTION('',(0.E0,0.E0,1.E0));
#128=DIRECTION('',(0.E0,1.E0,0.E0));
#129=AXIS2_PLACEMENT_3D('',#126,#127,#128);
#131=CARTESIAN_POINT('',(0.E0,1.255E1,1.5E0));
#132=DIRECTION('',(0.E0,0.E0,1.E0));
#133=DIRECTION('',(0.E0,-1.E0,0.E0));
#134=AXIS2_PLACEMENT_3D('',#131,#132,#133);
#136=DIRECTION('',(0.E0,0.E0,1.E0));
#137=VECTOR('',#136,1.5E0);
#138=CARTESIAN_POINT('',(-2.181114897227E1,2.45E1,0.E0));
#139=LINE('',#138,#137);
#140=DIRECTION('',(0.E0,0.E0,-1.E0));
#141=VECTOR('',#140,1.5E0);
#142=CARTESIAN_POINT('',(3.091114897227E1,2.45E1,1.5E0));
#143=LINE('',#142,#141);
#144=DIRECTION('',(0.E0,0.E0,-1.E0));
#145=VECTOR('',#144,1.5E0);
#146=CARTESIAN_POINT('',(3.159981724811E1,1.307523332953E1,1.5E0));
#147=LINE('',#146,#145);
#148=DIRECTION('',(0.E0,0.E0,-1.E0));
#149=VECTOR('',#148,1.5E0);
#150=CARTESIAN_POINT('',(3.121096622037E1,2.421046984901E1,1.5E0));
#151=LINE('',#150,#149);
#152=DIRECTION('',(0.E0,0.E0,-1.E0));
#153=VECTOR('',#152,1.5E0);
#154=CARTESIAN_POINT('',(3.16E1,1.306476348052E1,1.5E0));
#155=LINE('',#154,#153);
#156=DIRECTION('',(0.E0,0.E0,-1.E0));
#157=VECTOR('',#156,1.5E0);
#158=CARTESIAN_POINT('',(3.16E1,8.E-1,1.5E0));
#159=LINE('',#158,#157);
#160=DIRECTION('',(0.E0,0.E0,-1.E0));
#161=VECTOR('',#160,1.5E0);
#162=CARTESIAN_POINT('',(-2.22E1,5.E-1,1.5E0));
#163=LINE('',#162,#161);
#164=DIRECTION('',(0.E0,0.E0,-1.E0));
#165=VECTOR('',#164,1.5E0);
#166=CARTESIAN_POINT('',(3.13E1,5.E-1,1.5E0));
#167=LINE('',#166,#165);
#168=CARTESIAN_POINT('',(0.E0,1.255E1,1.E0));
#169=DIRECTION('',(0.E0,0.E0,1.E0));
#170=DIRECTION('',(0.E0,1.E0,0.E0));
#171=AXIS2_PLACEMENT_3D('',#168,#169,#170);
#173=DIRECTION('',(0.E0,-7.071067811865E-1,7.071067811865E-1));
#174=VECTOR('',#173,7.071067811865E-1);
#175=CARTESIAN_POINT('',(0.E0,1.105E1,1.E0));
#176=LINE('',#175,#174);
#177=CARTESIAN_POINT('',(0.E0,1.255E1,1.E0));
#178=DIRECTION('',(0.E0,0.E0,-1.E0));
#179=DIRECTION('',(0.E0,1.E0,0.E0));
#180=AXIS2_PLACEMENT_3D('',#177,#178,#179);
#182=DIRECTION('',(0.E0,7.071067811865E-1,7.071067811865E-1));
#183=VECTOR('',#182,7.071067811865E-1);
#184=CARTESIAN_POINT('',(0.E0,1.405E1,1.E0));
#185=LINE('',#184,#183);
#186=CARTESIAN_POINT('',(3.159981724811E1,1.307523332953E1,1.5E0));
#187=CARTESIAN_POINT('',(3.159981724811E1,1.307523332953E1,0.E0));
#188=VERTEX_POINT('',#186);
#189=VERTEX_POINT('',#187);
#190=CARTESIAN_POINT('',(3.16E1,1.306476348052E1,0.E0));
#191=VERTEX_POINT('',#190);
#192=CARTESIAN_POINT('',(3.16E1,1.306476348052E1,1.5E0));
#193=VERTEX_POINT('',#192);
#194=CARTESIAN_POINT('',(3.091114897227E1,2.45E1,0.E0));
#195=CARTESIAN_POINT('',(3.121096622037E1,2.421046984901E1,0.E0));
#196=VERTEX_POINT('',#194);
#197=VERTEX_POINT('',#195);
#198=CARTESIAN_POINT('',(3.121096622037E1,2.421046984901E1,1.5E0));
#199=VERTEX_POINT('',#198);
#200=CARTESIAN_POINT('',(3.091114897227E1,2.45E1,1.5E0));
#201=VERTEX_POINT('',#200);
#202=CARTESIAN_POINT('',(3.16E1,8.E-1,0.E0));
#203=CARTESIAN_POINT('',(3.13E1,5.E-1,0.E0));
#204=VERTEX_POINT('',#202);
#205=VERTEX_POINT('',#203);
#206=CARTESIAN_POINT('',(3.13E1,5.E-1,1.5E0));
#207=VERTEX_POINT('',#206);
#208=CARTESIAN_POINT('',(3.16E1,8.E-1,1.5E0));
#209=VERTEX_POINT('',#208);
#210=CARTESIAN_POINT('',(-2.22E1,5.E-1,0.E0));
#211=CARTESIAN_POINT('',(-2.25E1,8.E-1,0.E0));
#212=VERTEX_POINT('',#210);
#213=VERTEX_POINT('',#211);
#214=CARTESIAN_POINT('',(-2.25E1,8.E-1,1.5E0));
#215=VERTEX_POINT('',#214);
#216=CARTESIAN_POINT('',(-2.22E1,5.E-1,1.5E0));
#217=VERTEX_POINT('',#216);
#218=CARTESIAN_POINT('',(-2.25E1,1.306476348052E1,1.5E0));
#219=CARTESIAN_POINT('',(-2.25E1,1.306476348052E1,0.E0));
#220=VERTEX_POINT('',#218);
#221=VERTEX_POINT('',#219);
#222=CARTESIAN_POINT('',(-2.249981724811E1,1.307523332953E1,0.E0));
#223=VERTEX_POINT('',#222);
#224=CARTESIAN_POINT('',(-2.249981724811E1,1.307523332953E1,1.5E0));
#225=VERTEX_POINT('',#224);
#226=CARTESIAN_POINT('',(-2.181114897227E1,2.45E1,1.5E0));
#227=CARTESIAN_POINT('',(-2.211096622037E1,2.421046984901E1,1.5E0));
#228=VERTEX_POINT('',#226);
#229=VERTEX_POINT('',#227);
#230=CARTESIAN_POINT('',(-2.211096622037E1,2.421046984901E1,0.E0));
#231=VERTEX_POINT('',#230);
#232=CARTESIAN_POINT('',(-2.181114897227E1,2.45E1,0.E0));
#233=VERTEX_POINT('',#232);
#234=CARTESIAN_POINT('',(0.E0,1.405E1,1.E0));
#235=CARTESIAN_POINT('',(0.E0,1.105E1,1.E0));
#236=VERTEX_POINT('',#234);
#237=VERTEX_POINT('',#235);
#238=CARTESIAN_POINT('',(0.E0,1.455E1,1.5E0));
#239=CARTESIAN_POINT('',(0.E0,1.055E1,1.5E0));
#240=VERTEX_POINT('',#238);
#241=VERTEX_POINT('',#239);
#242=CARTESIAN_POINT('',(0.E0,0.E0,0.E0));
#243=DIRECTION('',(0.E0,0.E0,1.E0));
#244=DIRECTION('',(1.E0,0.E0,0.E0));
#245=AXIS2_PLACEMENT_3D('',#242,#243,#244);
#246=PLANE('',#245);
#248=ORIENTED_EDGE('',*,*,#247,.F.);
#250=ORIENTED_EDGE('',*,*,#249,.T.);
#252=ORIENTED_EDGE('',*,*,#251,.F.);
#254=ORIENTED_EDGE('',*,*,#253,.T.);
#256=ORIENTED_EDGE('',*,*,#255,.T.);
#258=ORIENTED_EDGE('',*,*,#257,.T.);
#260=ORIENTED_EDGE('',*,*,#259,.F.);
#262=ORIENTED_EDGE('',*,*,#261,.T.);
#264=ORIENTED_EDGE('',*,*,#263,.F.);
#266=ORIENTED_EDGE('',*,*,#265,.F.);
#268=ORIENTED_EDGE('',*,*,#267,.T.);
#270=ORIENTED_EDGE('',*,*,#269,.F.);
#271=EDGE_LOOP('',(#248,#250,#252,#254,#256,#258,#260,#262,#264,#266,#268,
#270));
#272=FACE_OUTER_BOUND('',#271,.F.);
#273=ADVANCED_FACE('',(#272),#246,.F.);
#274=CARTESIAN_POINT('',(-2.22E1,8.E-1,5.80188E0));
#275=DIRECTION('',(0.E0,0.E0,-1.E0));
#276=DIRECTION('',(1.184237892934E-14,-1.E0,0.E0));
#277=AXIS2_PLACEMENT_3D('',#274,#275,#276);
#278=CYLINDRICAL_SURFACE('',#277,3.E-1);
#279=ORIENTED_EDGE('',*,*,#247,.T.);
#281=ORIENTED_EDGE('',*,*,#280,.F.);
#283=ORIENTED_EDGE('',*,*,#282,.T.);
#285=ORIENTED_EDGE('',*,*,#284,.T.);
#286=EDGE_LOOP('',(#279,#281,#283,#285));
#287=FACE_OUTER_BOUND('',#286,.F.);
#288=ADVANCED_FACE('',(#287),#278,.T.);
#289=CARTESIAN_POINT('',(-2.25E1,0.E0,-2.13E0));
#290=DIRECTION('',(1.E0,0.E0,0.E0));
#291=DIRECTION('',(0.E0,1.E0,0.E0));
#292=AXIS2_PLACEMENT_3D('',#289,#290,#291);
#293=PLANE('',#292);
#294=ORIENTED_EDGE('',*,*,#280,.T.);
#295=ORIENTED_EDGE('',*,*,#269,.T.);
#297=ORIENTED_EDGE('',*,*,#296,.F.);
#299=ORIENTED_EDGE('',*,*,#298,.F.);
#300=EDGE_LOOP('',(#294,#295,#297,#299));
#301=FACE_OUTER_BOUND('',#300,.F.);
#302=ADVANCED_FACE('',(#301),#293,.F.);
#303=CARTESIAN_POINT('',(-2.22E1,1.306476348052E1,5.80188E0));
#304=DIRECTION('',(0.E0,0.E0,-1.E0));
#305=DIRECTION('',(-1.E0,0.E0,0.E0));
#306=AXIS2_PLACEMENT_3D('',#303,#304,#305);
#307=CYLINDRICAL_SURFACE('',#306,3.E-1);
#308=ORIENTED_EDGE('',*,*,#296,.T.);
#309=ORIENTED_EDGE('',*,*,#267,.F.);
#311=ORIENTED_EDGE('',*,*,#310,.F.);
#313=ORIENTED_EDGE('',*,*,#312,.F.);
#314=EDGE_LOOP('',(#308,#309,#311,#313));
#315=FACE_OUTER_BOUND('',#314,.F.);
#316=ADVANCED_FACE('',(#315),#307,.T.);
#317=CARTESIAN_POINT('',(-2.25E1,1.307E1,-2.13E0));
#318=DIRECTION('',(9.993908270191E-1,-3.489949670250E-2,0.E0));
#319=DIRECTION('',(3.489949670250E-2,9.993908270191E-1,0.E0));
#320=AXIS2_PLACEMENT_3D('',#317,#318,#319);
#321=PLANE('',#320);
#322=ORIENTED_EDGE('',*,*,#310,.T.);
#323=ORIENTED_EDGE('',*,*,#265,.T.);
#325=ORIENTED_EDGE('',*,*,#324,.T.);
#327=ORIENTED_EDGE('',*,*,#326,.F.);
#328=EDGE_LOOP('',(#322,#323,#325,#327));
#329=FACE_OUTER_BOUND('',#328,.F.);
#330=ADVANCED_FACE('',(#329),#321,.F.);
#331=CARTESIAN_POINT('',(-2.181114897227E1,2.42E1,-6.10188E0));
#332=DIRECTION('',(0.E0,0.E0,1.E0));
#333=DIRECTION('',(-1.184237892933E-14,1.E0,0.E0));
#334=AXIS2_PLACEMENT_3D('',#331,#332,#333);
#335=CYLINDRICAL_SURFACE('',#334,3.E-1);
#337=ORIENTED_EDGE('',*,*,#336,.T.);
#338=ORIENTED_EDGE('',*,*,#324,.F.);
#339=ORIENTED_EDGE('',*,*,#263,.T.);
#341=ORIENTED_EDGE('',*,*,#340,.T.);
#342=EDGE_LOOP('',(#337,#338,#339,#341));
#343=FACE_OUTER_BOUND('',#342,.F.);
#344=ADVANCED_FACE('',(#343),#335,.T.);
#345=CARTESIAN_POINT('',(0.E0,0.E0,1.5E0));
#346=DIRECTION('',(0.E0,0.E0,1.E0));
#347=DIRECTION('',(1.E0,0.E0,0.E0));
#348=AXIS2_PLACEMENT_3D('',#345,#346,#347);
#349=PLANE('',#348);
#350=ORIENTED_EDGE('',*,*,#282,.F.);
#351=ORIENTED_EDGE('',*,*,#298,.T.);
#352=ORIENTED_EDGE('',*,*,#312,.T.);
#353=ORIENTED_EDGE('',*,*,#326,.T.);
#354=ORIENTED_EDGE('',*,*,#336,.F.);
#356=ORIENTED_EDGE('',*,*,#355,.F.);
#358=ORIENTED_EDGE('',*,*,#357,.F.);
#360=ORIENTED_EDGE('',*,*,#359,.F.);
#362=ORIENTED_EDGE('',*,*,#361,.T.);
#364=ORIENTED_EDGE('',*,*,#363,.F.);
#366=ORIENTED_EDGE('',*,*,#365,.F.);
#368=ORIENTED_EDGE('',*,*,#367,.F.);
#369=EDGE_LOOP('',(#350,#351,#352,#353,#354,#356,#358,#360,#362,#364,#366,
#368));
#370=FACE_OUTER_BOUND('',#369,.F.);
#372=ORIENTED_EDGE('',*,*,#371,.T.);
#374=ORIENTED_EDGE('',*,*,#373,.T.);
#375=EDGE_LOOP('',(#372,#374));
#376=FACE_BOUND('',#375,.F.);
#377=ADVANCED_FACE('',(#370,#376),#349,.T.);
#378=CARTESIAN_POINT('',(3.120085560471E1,2.45E1,0.E0));
#379=DIRECTION('',(0.E0,1.E0,0.E0));
#380=DIRECTION('',(-1.E0,0.E0,0.E0));
#381=AXIS2_PLACEMENT_3D('',#378,#379,#380);
#382=PLANE('',#381);
#383=ORIENTED_EDGE('',*,*,#340,.F.);
#384=ORIENTED_EDGE('',*,*,#261,.F.);
#386=ORIENTED_EDGE('',*,*,#385,.F.);
#387=ORIENTED_EDGE('',*,*,#355,.T.);
#388=EDGE_LOOP('',(#383,#384,#386,#387));
#389=FACE_OUTER_BOUND('',#388,.F.);
#390=ADVANCED_FACE('',(#389),#382,.T.);
#391=CARTESIAN_POINT('',(3.091114897227E1,2.42E1,5.80188E0));
#392=DIRECTION('',(0.E0,0.E0,-1.E0));
#393=DIRECTION('',(0.E0,1.E0,0.E0));
#394=AXIS2_PLACEMENT_3D('',#391,#392,#393);
#395=CYLINDRICAL_SURFACE('',#394,3.E-1);
#396=ORIENTED_EDGE('',*,*,#259,.T.);
#398=ORIENTED_EDGE('',*,*,#397,.F.);
#399=ORIENTED_EDGE('',*,*,#357,.T.);
#400=ORIENTED_EDGE('',*,*,#385,.T.);
#401=EDGE_LOOP('',(#396,#398,#399,#400));
#402=FACE_OUTER_BOUND('',#401,.F.);
#403=ADVANCED_FACE('',(#402),#395,.T.);
#404=CARTESIAN_POINT('',(3.16E1,1.307E1,0.E0));
#405=DIRECTION('',(9.993908270191E-1,3.489949670250E-2,0.E0));
#406=DIRECTION('',(-3.489949670250E-2,9.993908270191E-1,0.E0));
#407=AXIS2_PLACEMENT_3D('',#404,#405,#406);
#408=PLANE('',#407);
#410=ORIENTED_EDGE('',*,*,#409,.F.);
#411=ORIENTED_EDGE('',*,*,#359,.T.);
#412=ORIENTED_EDGE('',*,*,#397,.T.);
#413=ORIENTED_EDGE('',*,*,#257,.F.);
#414=EDGE_LOOP('',(#410,#411,#412,#413));
#415=FACE_OUTER_BOUND('',#414,.F.);
#416=ADVANCED_FACE('',(#415),#408,.T.);
#417=CARTESIAN_POINT('',(3.13E1,1.306476348052E1,5.80188E0));
#418=DIRECTION('',(0.E0,0.E0,-1.E0));
#419=DIRECTION('',(9.993908270191E-1,3.489949670250E-2,0.E0));
#420=AXIS2_PLACEMENT_3D('',#417,#418,#419);
#421=CYLINDRICAL_SURFACE('',#420,3.E-1);
#422=ORIENTED_EDGE('',*,*,#409,.T.);
#423=ORIENTED_EDGE('',*,*,#255,.F.);
#425=ORIENTED_EDGE('',*,*,#424,.F.);
#426=ORIENTED_EDGE('',*,*,#361,.F.);
#427=EDGE_LOOP('',(#422,#423,#425,#426));
#428=FACE_OUTER_BOUND('',#427,.F.);
#429=ADVANCED_FACE('',(#428),#421,.T.);
#430=CARTESIAN_POINT('',(3.16E1,5.E-1,0.E0));
#431=DIRECTION('',(1.E0,0.E0,0.E0));
#432=DIRECTION('',(0.E0,1.E0,0.E0));
#433=AXIS2_PLACEMENT_3D('',#430,#431,#432);
#434=PLANE('',#433);
#435=ORIENTED_EDGE('',*,*,#424,.T.);
#436=ORIENTED_EDGE('',*,*,#253,.F.);
#438=ORIENTED_EDGE('',*,*,#437,.F.);
#439=ORIENTED_EDGE('',*,*,#363,.T.);
#440=EDGE_LOOP('',(#435,#436,#438,#439));
#441=FACE_OUTER_BOUND('',#440,.F.);
#442=ADVANCED_FACE('',(#441),#434,.T.);
#443=CARTESIAN_POINT('',(3.13E1,8.E-1,5.80188E0));
#444=DIRECTION('',(0.E0,0.E0,-1.E0));
#445=DIRECTION('',(1.E0,0.E0,0.E0));
#446=AXIS2_PLACEMENT_3D('',#443,#444,#445);
#447=CYLINDRICAL_SURFACE('',#446,3.E-1);
#448=ORIENTED_EDGE('',*,*,#251,.T.);
#450=ORIENTED_EDGE('',*,*,#449,.F.);
#451=ORIENTED_EDGE('',*,*,#365,.T.);
#452=ORIENTED_EDGE('',*,*,#437,.T.);
#453=EDGE_LOOP('',(#448,#450,#451,#452));
#454=FACE_OUTER_BOUND('',#453,.F.);
#455=ADVANCED_FACE('',(#454),#447,.T.);
#456=CARTESIAN_POINT('',(-3.16E1,5.E-1,0.E0));
#457=DIRECTION('',(0.E0,-1.E0,0.E0));
#458=DIRECTION('',(1.E0,0.E0,0.E0));
#459=AXIS2_PLACEMENT_3D('',#456,#457,#458);
#460=PLANE('',#459);
#461=ORIENTED_EDGE('',*,*,#284,.F.);
#462=ORIENTED_EDGE('',*,*,#367,.T.);
#463=ORIENTED_EDGE('',*,*,#449,.T.);
#464=ORIENTED_EDGE('',*,*,#249,.F.);
#465=EDGE_LOOP('',(#461,#462,#463,#464));
#466=FACE_OUTER_BOUND('',#465,.F.);
#467=ADVANCED_FACE('',(#466),#460,.T.);
#468=CARTESIAN_POINT('',(0.E0,1.255E1,1.25E0));
#469=DIRECTION('',(0.E0,0.E0,1.E0));
#470=DIRECTION('',(0.E0,1.E0,0.E0));
#471=AXIS2_PLACEMENT_3D('',#468,#469,#470);
#472=CONICAL_SURFACE('',#471,1.75E0,4.5E1);
#473=ORIENTED_EDGE('',*,*,#371,.F.);
#475=ORIENTED_EDGE('',*,*,#474,.F.);
#477=ORIENTED_EDGE('',*,*,#476,.T.);
#479=ORIENTED_EDGE('',*,*,#478,.T.);
#480=EDGE_LOOP('',(#473,#475,#477,#479));
#481=FACE_OUTER_BOUND('',#480,.F.);
#482=ADVANCED_FACE('',(#481),#472,.F.);
#483=CARTESIAN_POINT('',(0.E0,1.255E1,1.25E0));
#484=DIRECTION('',(0.E0,0.E0,1.E0));
#485=DIRECTION('',(0.E0,1.E0,0.E0));
#486=AXIS2_PLACEMENT_3D('',#483,#484,#485);
#487=CONICAL_SURFACE('',#486,1.75E0,4.5E1);
#488=ORIENTED_EDGE('',*,*,#373,.F.);
#489=ORIENTED_EDGE('',*,*,#478,.F.);
#491=ORIENTED_EDGE('',*,*,#490,.F.);
#492=ORIENTED_EDGE('',*,*,#474,.T.);
#493=EDGE_LOOP('',(#488,#489,#491,#492));
#494=FACE_OUTER_BOUND('',#493,.F.);
#495=ADVANCED_FACE('',(#494),#487,.F.);
#496=CARTESIAN_POINT('',(0.E0,1.255E1,1.E0));
#497=DIRECTION('',(0.E0,0.E0,1.E0));
#498=DIRECTION('',(0.E0,1.E0,0.E0));
#499=AXIS2_PLACEMENT_3D('',#496,#497,#498);
#500=PLANE('',#499);
#501=ORIENTED_EDGE('',*,*,#490,.T.);
#502=ORIENTED_EDGE('',*,*,#476,.F.);
#503=EDGE_LOOP('',(#501,#502));
#504=FACE_OUTER_BOUND('',#503,.F.);
#505=ADVANCED_FACE('',(#504),#500,.T.);
#506=CLOSED_SHELL('',(#273,#288,#302,#316,#330,#344,#377,#390,#403,#416,#429,
#442,#455,#467,#482,#495,#505));
#507=MANIFOLD_SOLID_BREP('',#506);
#509=DIMENSIONAL_EXPONENTS(0.E0,0.E0,0.E0,0.E0,0.E0,0.E0,0.E0);
#511=PLANE_ANGLE_MEASURE_WITH_UNIT(PLANE_ANGLE_MEASURE(1.745329251994E-2),#510);
#512=(CONVERSION_BASED_UNIT('DEGREE',#511)NAMED_UNIT(*)PLANE_ANGLE_UNIT());
#514=UNCERTAINTY_MEASURE_WITH_UNIT(LENGTH_MEASURE(1.2E-3),#508,'closure',
'Maximum model space distance between geometric entities at asserted connectivities');
#515=(GEOMETRIC_REPRESENTATION_CONTEXT(3)GLOBAL_UNCERTAINTY_ASSIGNED_CONTEXT((
#514))GLOBAL_UNIT_ASSIGNED_CONTEXT((#508,#512,#513))REPRESENTATION_CONTEXT
('ID1','3'));
#517=APPLICATION_CONTEXT(
'CONFIGURATION CONTROLLED 3D DESIGNS OF MECHANICAL PARTS AND ASSEMBLIES');
#518=APPLICATION_PROTOCOL_DEFINITION('international standard',
'config_control_design',1994,#517);
#519=DESIGN_CONTEXT('',#517,'design');
#520=MECHANICAL_CONTEXT('',#517,'mechanical');
#521=PRODUCT('PRK1-5_3A_AP','PRK1-5_3A_AP','NOT SPECIFIED',(#520));
#522=PRODUCT_DEFINITION_FORMATION_WITH_SPECIFIED_SOURCE('184','LAST_VERSION',
#521,.MADE.);
#526=PRODUCT_CATEGORY('part','');
#527=PRODUCT_RELATED_PRODUCT_CATEGORY('detail','',(#521));
#528=PRODUCT_CATEGORY_RELATIONSHIP('','',#526,#527);
#529=SECURITY_CLASSIFICATION_LEVEL('unclassified');
#530=SECURITY_CLASSIFICATION('','',#529);
#531=CC_DESIGN_SECURITY_CLASSIFICATION(#530,(#522));
#532=APPROVAL_STATUS('approved');
#533=APPROVAL(#532,'');
#534=CC_DESIGN_APPROVAL(#533,(#530,#522,#523));
#535=CALENDAR_DATE(119,19,7);
#536=COORDINATED_UNIVERSAL_TIME_OFFSET(2,0,.AHEAD.);
#537=LOCAL_TIME(9,11,3.4E1,#536);
#538=DATE_AND_TIME(#535,#537);
#539=APPROVAL_DATE_TIME(#538,#533);
#540=DATE_TIME_ROLE('creation_date');
#541=CC_DESIGN_DATE_AND_TIME_ASSIGNMENT(#538,#540,(#523));
#542=DATE_TIME_ROLE('classification_date');
#543=CC_DESIGN_DATE_AND_TIME_ASSIGNMENT(#538,#542,(#530));
#544=PERSON('UNSPECIFIED','UNSPECIFIED',$,$,$,$);
#545=ORGANIZATION('UNSPECIFIED','UNSPECIFIED','UNSPECIFIED');
#546=PERSON_AND_ORGANIZATION(#544,#545);
#547=APPROVAL_ROLE('approver');
#548=APPROVAL_PERSON_ORGANIZATION(#546,#533,#547);
#549=PERSON_AND_ORGANIZATION_ROLE('creator');
#550=CC_DESIGN_PERSON_AND_ORGANIZATION_ASSIGNMENT(#546,#549,(#522,#523));
#551=PERSON_AND_ORGANIZATION_ROLE('design_supplier');
#552=CC_DESIGN_PERSON_AND_ORGANIZATION_ASSIGNMENT(#546,#551,(#522));
#553=PERSON_AND_ORGANIZATION_ROLE('classification_officer');
#554=CC_DESIGN_PERSON_AND_ORGANIZATION_ASSIGNMENT(#546,#553,(#530));
#555=PERSON_AND_ORGANIZATION_ROLE('design_owner');
#556=CC_DESIGN_PERSON_AND_ORGANIZATION_ASSIGNMENT(#546,#555,(#521));
#6=CIRCLE('',#5,3.E-1);
#15=CIRCLE('',#14,3.E-1);
#24=CIRCLE('',#23,3.E-1);
#33=CIRCLE('',#32,3.E-1);
#42=CIRCLE('',#41,3.E-1);
#47=CIRCLE('',#46,3.E-1);
#76=CIRCLE('',#75,3.E-1);
#85=CIRCLE('',#84,3.E-1);
#94=CIRCLE('',#93,3.E-1);
#103=CIRCLE('',#102,3.E-1);
#112=CIRCLE('',#111,3.E-1);
#121=CIRCLE('',#120,3.E-1);
#130=CIRCLE('',#129,2.E0);
#135=CIRCLE('',#134,2.E0);
#172=CIRCLE('',#171,1.5E0);
#181=CIRCLE('',#180,1.5E0);
#247=EDGE_CURVE('',#212,#213,#6,.T.);
#249=EDGE_CURVE('',#212,#205,#10,.T.);
#251=EDGE_CURVE('',#204,#205,#15,.T.);
#253=EDGE_CURVE('',#204,#191,#19,.T.);
#255=EDGE_CURVE('',#191,#189,#24,.T.);
#257=EDGE_CURVE('',#189,#197,#28,.T.);
#259=EDGE_CURVE('',#196,#197,#33,.T.);
#261=EDGE_CURVE('',#196,#233,#37,.T.);
#263=EDGE_CURVE('',#231,#233,#42,.T.);
#265=EDGE_CURVE('',#223,#231,#67,.T.);
#267=EDGE_CURVE('',#223,#221,#47,.T.);
#269=EDGE_CURVE('',#213,#221,#55,.T.);
#280=EDGE_CURVE('',#215,#213,#51,.T.);
#282=EDGE_CURVE('',#215,#217,#76,.T.);
#284=EDGE_CURVE('',#217,#212,#163,.T.);
#296=EDGE_CURVE('',#220,#221,#59,.T.);
#298=EDGE_CURVE('',#215,#220,#80,.T.);
#310=EDGE_CURVE('',#225,#223,#63,.T.);
#312=EDGE_CURVE('',#220,#225,#85,.T.);
#324=EDGE_CURVE('',#231,#229,#71,.T.);
#326=EDGE_CURVE('',#225,#229,#89,.T.);
#336=EDGE_CURVE('',#228,#229,#94,.T.);
#340=EDGE_CURVE('',#233,#228,#139,.T.);
#355=EDGE_CURVE('',#201,#228,#98,.T.);
#357=EDGE_CURVE('',#199,#201,#103,.T.);
#359=EDGE_CURVE('',#188,#199,#107,.T.);
#361=EDGE_CURVE('',#188,#193,#112,.T.);
#363=EDGE_CURVE('',#209,#193,#116,.T.);
#365=EDGE_CURVE('',#207,#209,#121,.T.);
#367=EDGE_CURVE('',#217,#207,#125,.T.);
#371=EDGE_CURVE('',#240,#241,#130,.T.);
#373=EDGE_CURVE('',#241,#240,#135,.T.);
#385=EDGE_CURVE('',#201,#196,#143,.T.);
#397=EDGE_CURVE('',#199,#197,#151,.T.);
#409=EDGE_CURVE('',#188,#189,#147,.T.);
#424=EDGE_CURVE('',#193,#191,#155,.T.);
#437=EDGE_CURVE('',#209,#204,#159,.T.);
#449=EDGE_CURVE('',#207,#205,#167,.T.);
#474=EDGE_CURVE('',#236,#240,#185,.T.);
#476=EDGE_CURVE('',#236,#237,#172,.T.);
#478=EDGE_CURVE('',#237,#241,#176,.T.);
#490=EDGE_CURVE('',#236,#237,#181,.T.);
#508=(LENGTH_UNIT()NAMED_UNIT(*)SI_UNIT(.MILLI.,.METRE.));
#510=(NAMED_UNIT(*)PLANE_ANGLE_UNIT()SI_UNIT($,.RADIAN.));
#513=(NAMED_UNIT(*)SI_UNIT($,.STERADIAN.)SOLID_ANGLE_UNIT());
#516=ADVANCED_BREP_SHAPE_REPRESENTATION('',(#507),#515);
#523=PRODUCT_DEFINITION('design','',#522,#519);
#524=PRODUCT_DEFINITION_SHAPE('','SHAPE FOR PRK1-5_3A_AP.',#523);
#525=SHAPE_DEFINITION_REPRESENTATION(#524,#516);
ENDSEC;
END-ISO-10303-21;
