ISO-10303-21;
HEADER;
FILE_DESCRIPTION((''),'2;1');
FILE_NAME('SRK2515AP_STEP','2011-12-15T',('Neumann'),(''),
'PRO/ENGINEER BY PARAMETRIC TECHNOLOGY CORPORATION, 2007390',
'PRO/ENGINEER BY PARAMETRIC TECHNOLOGY CORPORATION, 2007390','');
FILE_SCHEMA(('CONFIG_CONTROL_DESIGN'));
ENDSEC;
DATA;
#2=DIRECTION('',(3.420201433257E-1,9.396926207859E-1,0.E0));
#3=VECTOR('',#2,5.852977748618E0);
#4=CARTESIAN_POINT('',(-1.2E1,6.5E0,0.E0));
#5=LINE('',#4,#3);
#6=DIRECTION('',(-1.E0,0.E0,0.E0));
#7=VECTOR('',#6,1.999632742307E1);
#8=CARTESIAN_POINT('',(9.998163711536E0,1.2E1,0.E0));
#9=LINE('',#8,#7);
#10=DIRECTION('',(3.420201433257E-1,-9.396926207859E-1,0.E0));
#11=VECTOR('',#10,5.852977748618E0);
#12=CARTESIAN_POINT('',(9.998163711536E0,1.2E1,0.E0));
#13=LINE('',#12,#11);
#14=DIRECTION('',(0.E0,1.E0,0.E0));
#15=VECTOR('',#14,1.85E1);
#16=CARTESIAN_POINT('',(1.2E1,-1.2E1,0.E0));
#17=LINE('',#16,#15);
#18=DIRECTION('',(1.E0,0.E0,0.E0));
#19=VECTOR('',#18,2.4E1);
#20=CARTESIAN_POINT('',(-1.2E1,-1.2E1,0.E0));
#21=LINE('',#20,#19);
#22=DIRECTION('',(0.E0,-1.E0,0.E0));
#23=VECTOR('',#22,1.85E1);
#24=CARTESIAN_POINT('',(-1.2E1,6.5E0,0.E0));
#25=LINE('',#24,#23);
#26=DIRECTION('',(0.E0,-1.E0,0.E0));
#27=VECTOR('',#26,9.E0);
#28=CARTESIAN_POINT('',(-4.5E0,1.1E1,0.E0));
#29=LINE('',#28,#27);
#30=DIRECTION('',(1.E0,0.E0,0.E0));
#31=VECTOR('',#30,9.E0);
#32=CARTESIAN_POINT('',(-4.5E0,2.E0,0.E0));
#33=LINE('',#32,#31);
#34=DIRECTION('',(0.E0,1.E0,0.E0));
#35=VECTOR('',#34,9.E0);
#36=CARTESIAN_POINT('',(4.5E0,2.E0,0.E0));
#37=LINE('',#36,#35);
#38=DIRECTION('',(-1.E0,0.E0,0.E0));
#39=VECTOR('',#38,9.E0);
#40=CARTESIAN_POINT('',(4.5E0,1.1E1,0.E0));
#41=LINE('',#40,#39);
#42=DIRECTION('',(0.E0,0.E0,1.E0));
#43=VECTOR('',#42,1.5E0);
#44=CARTESIAN_POINT('',(-1.2E1,6.5E0,-1.5E0));
#45=LINE('',#44,#43);
#46=DIRECTION('',(0.E0,0.E0,-1.E0));
#47=VECTOR('',#46,1.5E0);
#48=CARTESIAN_POINT('',(-1.2E1,-1.2E1,0.E0));
#49=LINE('',#48,#47);
#50=DIRECTION('',(0.E0,0.E0,1.E0));
#51=VECTOR('',#50,1.5E0);
#52=CARTESIAN_POINT('',(1.2E1,6.5E0,-1.5E0));
#53=LINE('',#52,#51);
#54=DIRECTION('',(0.E0,0.E0,-1.E0));
#55=VECTOR('',#54,1.5E0);
#56=CARTESIAN_POINT('',(1.2E1,-1.2E1,0.E0));
#57=LINE('',#56,#55);
#58=DIRECTION('',(0.E0,0.E0,1.E0));
#59=VECTOR('',#58,1.5E0);
#60=CARTESIAN_POINT('',(-9.998163711536E0,1.2E1,-1.5E0));
#61=LINE('',#60,#59);
#62=DIRECTION('',(0.E0,0.E0,1.E0));
#63=VECTOR('',#62,1.5E0);
#64=CARTESIAN_POINT('',(9.998163711536E0,1.2E1,-1.5E0));
#65=LINE('',#64,#63);
#66=DIRECTION('',(3.420201433257E-1,9.396926207859E-1,0.E0));
#67=VECTOR('',#66,5.852977748618E0);
#68=CARTESIAN_POINT('',(-1.2E1,6.5E0,-1.5E0));
#69=LINE('',#68,#67);
#70=DIRECTION('',(0.E0,-1.E0,0.E0));
#71=VECTOR('',#70,1.85E1);
#72=CARTESIAN_POINT('',(-1.2E1,6.5E0,-1.5E0));
#73=LINE('',#72,#71);
#74=DIRECTION('',(1.E0,0.E0,0.E0));
#75=VECTOR('',#74,2.4E1);
#76=CARTESIAN_POINT('',(-1.2E1,-1.2E1,-1.5E0));
#77=LINE('',#76,#75);
#78=DIRECTION('',(0.E0,1.E0,0.E0));
#79=VECTOR('',#78,1.85E1);
#80=CARTESIAN_POINT('',(1.2E1,-1.2E1,-1.5E0));
#81=LINE('',#80,#79);
#82=DIRECTION('',(3.420201433257E-1,-9.396926207859E-1,0.E0));
#83=VECTOR('',#82,5.852977748618E0);
#84=CARTESIAN_POINT('',(9.998163711536E0,1.2E1,-1.5E0));
#85=LINE('',#84,#83);
#86=DIRECTION('',(-1.E0,0.E0,0.E0));
#87=VECTOR('',#86,1.999632742307E1);
#88=CARTESIAN_POINT('',(9.998163711536E0,1.2E1,-1.5E0));
#89=LINE('',#88,#87);
#90=CARTESIAN_POINT('',(1.025E1,4.E0,-1.5E0));
#91=DIRECTION('',(0.E0,0.E0,-1.E0));
#92=DIRECTION('',(0.E0,1.E0,0.E0));
#93=AXIS2_PLACEMENT_3D('',#90,#91,#92);
#95=CARTESIAN_POINT('',(1.025E1,4.E0,-1.5E0));
#96=DIRECTION('',(0.E0,0.E0,-1.E0));
#97=DIRECTION('',(0.E0,-1.E0,0.E0));
#98=AXIS2_PLACEMENT_3D('',#95,#96,#97);
#100=CARTESIAN_POINT('',(-1.025E1,4.E0,-1.5E0));
#101=DIRECTION('',(0.E0,0.E0,-1.E0));
#102=DIRECTION('',(0.E0,1.E0,0.E0));
#103=AXIS2_PLACEMENT_3D('',#100,#101,#102);
#105=CARTESIAN_POINT('',(-1.025E1,4.E0,-1.5E0));
#106=DIRECTION('',(0.E0,0.E0,-1.E0));
#107=DIRECTION('',(0.E0,-1.E0,0.E0));
#108=AXIS2_PLACEMENT_3D('',#105,#106,#107);
#110=CARTESIAN_POINT('',(8.5E0,-8.7E0,-1.5E0));
#111=DIRECTION('',(0.E0,0.E0,-1.E0));
#112=DIRECTION('',(0.E0,1.E0,0.E0));
#113=AXIS2_PLACEMENT_3D('',#110,#111,#112);
#115=CARTESIAN_POINT('',(8.5E0,-8.7E0,-1.5E0));
#116=DIRECTION('',(0.E0,0.E0,-1.E0));
#117=DIRECTION('',(0.E0,-1.E0,0.E0));
#118=AXIS2_PLACEMENT_3D('',#115,#116,#117);
#120=CARTESIAN_POINT('',(1.025E1,4.E0,-3.E0));
#121=DIRECTION('',(0.E0,0.E0,-1.E0));
#122=DIRECTION('',(0.E0,1.E0,0.E0));
#123=AXIS2_PLACEMENT_3D('',#120,#121,#122);
#125=DIRECTION('',(0.E0,0.E0,1.E0));
#126=VECTOR('',#125,1.5E0);
#127=CARTESIAN_POINT('',(1.025E1,3.325E0,-3.E0));
#128=LINE('',#127,#126);
#129=CARTESIAN_POINT('',(1.025E1,4.E0,-3.E0));
#130=DIRECTION('',(0.E0,0.E0,1.E0));
#131=DIRECTION('',(0.E0,1.E0,0.E0));
#132=AXIS2_PLACEMENT_3D('',#129,#130,#131);
#134=DIRECTION('',(0.E0,0.E0,1.E0));
#135=VECTOR('',#134,1.5E0);
#136=CARTESIAN_POINT('',(1.025E1,4.675E0,-3.E0));
#137=LINE('',#136,#135);
#138=CARTESIAN_POINT('',(-1.025E1,4.E0,-3.E0));
#139=DIRECTION('',(0.E0,0.E0,-1.E0));
#140=DIRECTION('',(0.E0,1.E0,0.E0));
#141=AXIS2_PLACEMENT_3D('',#138,#139,#140);
#143=DIRECTION('',(0.E0,0.E0,1.E0));
#144=VECTOR('',#143,1.5E0);
#145=CARTESIAN_POINT('',(-1.025E1,3.325E0,-3.E0));
#146=LINE('',#145,#144);
#147=CARTESIAN_POINT('',(-1.025E1,4.E0,-3.E0));
#148=DIRECTION('',(0.E0,0.E0,1.E0));
#149=DIRECTION('',(0.E0,1.E0,0.E0));
#150=AXIS2_PLACEMENT_3D('',#147,#148,#149);
#152=DIRECTION('',(0.E0,0.E0,1.E0));
#153=VECTOR('',#152,1.5E0);
#154=CARTESIAN_POINT('',(-1.025E1,4.675E0,-3.E0));
#155=LINE('',#154,#153);
#156=CARTESIAN_POINT('',(8.5E0,-8.7E0,-3.E0));
#157=DIRECTION('',(0.E0,0.E0,-1.E0));
#158=DIRECTION('',(0.E0,1.E0,0.E0));
#159=AXIS2_PLACEMENT_3D('',#156,#157,#158);
#161=DIRECTION('',(0.E0,0.E0,1.E0));
#162=VECTOR('',#161,1.5E0);
#163=CARTESIAN_POINT('',(8.5E0,-9.375E0,-3.E0));
#164=LINE('',#163,#162);
#165=CARTESIAN_POINT('',(8.5E0,-8.7E0,-3.E0));
#166=DIRECTION('',(0.E0,0.E0,1.E0));
#167=DIRECTION('',(0.E0,1.E0,0.E0));
#168=AXIS2_PLACEMENT_3D('',#165,#166,#167);
#170=DIRECTION('',(0.E0,0.E0,1.E0));
#171=VECTOR('',#170,1.5E0);
#172=CARTESIAN_POINT('',(8.5E0,-8.025E0,-3.E0));
#173=LINE('',#172,#171);
#174=DIRECTION('',(0.E0,0.E0,-1.E0));
#175=VECTOR('',#174,2.E-1);
#176=CARTESIAN_POINT('',(-4.5E0,1.1E1,0.E0));
#177=LINE('',#176,#175);
#178=DIRECTION('',(0.E0,0.E0,-1.E0));
#179=VECTOR('',#178,2.E-1);
#180=CARTESIAN_POINT('',(4.5E0,1.1E1,0.E0));
#181=LINE('',#180,#179);
#182=DIRECTION('',(0.E0,0.E0,-1.E0));
#183=VECTOR('',#182,2.E-1);
#184=CARTESIAN_POINT('',(4.5E0,2.E0,0.E0));
#185=LINE('',#184,#183);
#186=DIRECTION('',(0.E0,0.E0,-1.E0));
#187=VECTOR('',#186,2.E-1);
#188=CARTESIAN_POINT('',(-4.5E0,2.E0,0.E0));
#189=LINE('',#188,#187);
#190=DIRECTION('',(0.E0,-1.E0,0.E0));
#191=VECTOR('',#190,9.E0);
#192=CARTESIAN_POINT('',(-4.5E0,1.1E1,-2.E-1));
#193=LINE('',#192,#191);
#194=DIRECTION('',(-1.E0,0.E0,0.E0));
#195=VECTOR('',#194,9.E0);
#196=CARTESIAN_POINT('',(4.5E0,1.1E1,-2.E-1));
#197=LINE('',#196,#195);
#198=DIRECTION('',(0.E0,1.E0,0.E0));
#199=VECTOR('',#198,9.E0);
#200=CARTESIAN_POINT('',(4.5E0,2.E0,-2.E-1));
#201=LINE('',#200,#199);
#202=DIRECTION('',(1.E0,0.E0,0.E0));
#203=VECTOR('',#202,9.E0);
#204=CARTESIAN_POINT('',(-4.5E0,2.E0,-2.E-1));
#205=LINE('',#204,#203);
#206=CARTESIAN_POINT('',(-1.2E1,-1.2E1,0.E0));
#207=CARTESIAN_POINT('',(1.2E1,-1.2E1,0.E0));
#208=VERTEX_POINT('',#206);
#209=VERTEX_POINT('',#207);
#210=CARTESIAN_POINT('',(-1.2E1,-1.2E1,-1.5E0));
#211=CARTESIAN_POINT('',(1.2E1,-1.2E1,-1.5E0));
#212=VERTEX_POINT('',#210);
#213=VERTEX_POINT('',#211);
#214=CARTESIAN_POINT('',(-1.2E1,6.5E0,0.E0));
#215=CARTESIAN_POINT('',(-9.998163711536E0,1.2E1,0.E0));
#216=VERTEX_POINT('',#214);
#217=VERTEX_POINT('',#215);
#218=CARTESIAN_POINT('',(9.998163711536E0,1.2E1,0.E0));
#219=CARTESIAN_POINT('',(1.2E1,6.5E0,0.E0));
#220=VERTEX_POINT('',#218);
#221=VERTEX_POINT('',#219);
#222=CARTESIAN_POINT('',(-1.2E1,6.5E0,-1.5E0));
#223=VERTEX_POINT('',#222);
#224=CARTESIAN_POINT('',(1.2E1,6.5E0,-1.5E0));
#225=VERTEX_POINT('',#224);
#226=CARTESIAN_POINT('',(-9.998163711536E0,1.2E1,-1.5E0));
#227=VERTEX_POINT('',#226);
#228=CARTESIAN_POINT('',(9.998163711536E0,1.2E1,-1.5E0));
#229=VERTEX_POINT('',#228);
#230=CARTESIAN_POINT('',(-4.5E0,1.1E1,-2.E-1));
#231=CARTESIAN_POINT('',(-4.5E0,2.E0,-2.E-1));
#232=VERTEX_POINT('',#230);
#233=VERTEX_POINT('',#231);
#234=CARTESIAN_POINT('',(4.5E0,2.E0,-2.E-1));
#235=VERTEX_POINT('',#234);
#236=CARTESIAN_POINT('',(4.5E0,1.1E1,-2.E-1));
#237=VERTEX_POINT('',#236);
#238=CARTESIAN_POINT('',(-4.5E0,1.1E1,0.E0));
#239=CARTESIAN_POINT('',(-4.5E0,2.E0,0.E0));
#240=VERTEX_POINT('',#238);
#241=VERTEX_POINT('',#239);
#242=CARTESIAN_POINT('',(4.5E0,2.E0,0.E0));
#243=VERTEX_POINT('',#242);
#244=CARTESIAN_POINT('',(4.5E0,1.1E1,0.E0));
#245=VERTEX_POINT('',#244);
#246=CARTESIAN_POINT('',(1.025E1,4.675E0,-3.E0));
#247=CARTESIAN_POINT('',(1.025E1,3.325E0,-3.E0));
#248=VERTEX_POINT('',#246);
#249=VERTEX_POINT('',#247);
#250=CARTESIAN_POINT('',(1.025E1,4.675E0,-1.5E0));
#251=CARTESIAN_POINT('',(1.025E1,3.325E0,-1.5E0));
#252=VERTEX_POINT('',#250);
#253=VERTEX_POINT('',#251);
#254=CARTESIAN_POINT('',(-1.025E1,4.675E0,-3.E0));
#255=CARTESIAN_POINT('',(-1.025E1,3.325E0,-3.E0));
#256=VERTEX_POINT('',#254);
#257=VERTEX_POINT('',#255);
#258=CARTESIAN_POINT('',(-1.025E1,4.675E0,-1.5E0));
#259=CARTESIAN_POINT('',(-1.025E1,3.325E0,-1.5E0));
#260=VERTEX_POINT('',#258);
#261=VERTEX_POINT('',#259);
#262=CARTESIAN_POINT('',(8.5E0,-8.025E0,-3.E0));
#263=CARTESIAN_POINT('',(8.5E0,-9.375E0,-3.E0));
#264=VERTEX_POINT('',#262);
#265=VERTEX_POINT('',#263);
#266=CARTESIAN_POINT('',(8.5E0,-8.025E0,-1.5E0));
#267=CARTESIAN_POINT('',(8.5E0,-9.375E0,-1.5E0));
#268=VERTEX_POINT('',#266);
#269=VERTEX_POINT('',#267);
#270=CARTESIAN_POINT('',(0.E0,0.E0,0.E0));
#271=DIRECTION('',(0.E0,0.E0,1.E0));
#272=DIRECTION('',(1.E0,0.E0,0.E0));
#273=AXIS2_PLACEMENT_3D('',#270,#271,#272);
#274=PLANE('',#273);
#276=ORIENTED_EDGE('',*,*,#275,.T.);
#278=ORIENTED_EDGE('',*,*,#277,.F.);
#280=ORIENTED_EDGE('',*,*,#279,.T.);
#282=ORIENTED_EDGE('',*,*,#281,.F.);
#284=ORIENTED_EDGE('',*,*,#283,.F.);
#286=ORIENTED_EDGE('',*,*,#285,.F.);
#287=EDGE_LOOP('',(#276,#278,#280,#282,#284,#286));
#288=FACE_OUTER_BOUND('',#287,.F.);
#290=ORIENTED_EDGE('',*,*,#289,.T.);
#292=ORIENTED_EDGE('',*,*,#291,.T.);
#294=ORIENTED_EDGE('',*,*,#293,.T.);
#296=ORIENTED_EDGE('',*,*,#295,.T.);
#297=EDGE_LOOP('',(#290,#292,#294,#296));
#298=FACE_BOUND('',#297,.F.);
#299=ADVANCED_FACE('',(#288,#298),#274,.T.);
#300=CARTESIAN_POINT('',(-1.2E1,6.5E0,0.E0));
#301=DIRECTION('',(9.396926207859E-1,-3.420201433257E-1,0.E0));
#302=DIRECTION('',(3.420201433257E-1,9.396926207859E-1,0.E0));
#303=AXIS2_PLACEMENT_3D('',#300,#301,#302);
#304=PLANE('',#303);
#305=ORIENTED_EDGE('',*,*,#275,.F.);
#307=ORIENTED_EDGE('',*,*,#306,.F.);
#309=ORIENTED_EDGE('',*,*,#308,.T.);
#311=ORIENTED_EDGE('',*,*,#310,.T.);
#312=EDGE_LOOP('',(#305,#307,#309,#311));
#313=FACE_OUTER_BOUND('',#312,.F.);
#314=ADVANCED_FACE('',(#313),#304,.F.);
#315=CARTESIAN_POINT('',(-1.2E1,1.2E1,0.E0));
#316=DIRECTION('',(-1.E0,0.E0,0.E0));
#317=DIRECTION('',(0.E0,-1.E0,0.E0));
#318=AXIS2_PLACEMENT_3D('',#315,#316,#317);
#319=PLANE('',#318);
#320=ORIENTED_EDGE('',*,*,#306,.T.);
#321=ORIENTED_EDGE('',*,*,#285,.T.);
#323=ORIENTED_EDGE('',*,*,#322,.T.);
#325=ORIENTED_EDGE('',*,*,#324,.F.);
#326=EDGE_LOOP('',(#320,#321,#323,#325));
#327=FACE_OUTER_BOUND('',#326,.F.);
#328=ADVANCED_FACE('',(#327),#319,.T.);
#329=CARTESIAN_POINT('',(-1.2E1,-1.2E1,0.E0));
#330=DIRECTION('',(0.E0,-1.E0,0.E0));
#331=DIRECTION('',(1.E0,0.E0,0.E0));
#332=AXIS2_PLACEMENT_3D('',#329,#330,#331);
#333=PLANE('',#332);
#334=ORIENTED_EDGE('',*,*,#283,.T.);
#336=ORIENTED_EDGE('',*,*,#335,.T.);
#338=ORIENTED_EDGE('',*,*,#337,.F.);
#339=ORIENTED_EDGE('',*,*,#322,.F.);
#340=EDGE_LOOP('',(#334,#336,#338,#339));
#341=FACE_OUTER_BOUND('',#340,.F.);
#342=ADVANCED_FACE('',(#341),#333,.T.);
#343=CARTESIAN_POINT('',(1.2E1,-1.2E1,0.E0));
#344=DIRECTION('',(1.E0,0.E0,0.E0));
#345=DIRECTION('',(0.E0,1.E0,0.E0));
#346=AXIS2_PLACEMENT_3D('',#343,#344,#345);
#347=PLANE('',#346);
#349=ORIENTED_EDGE('',*,*,#348,.F.);
#351=ORIENTED_EDGE('',*,*,#350,.F.);
#352=ORIENTED_EDGE('',*,*,#335,.F.);
#353=ORIENTED_EDGE('',*,*,#281,.T.);
#354=EDGE_LOOP('',(#349,#351,#352,#353));
#355=FACE_OUTER_BOUND('',#354,.F.);
#356=ADVANCED_FACE('',(#355),#347,.T.);
#357=CARTESIAN_POINT('',(9.998163711536E0,1.2E1,0.E0));
#358=DIRECTION('',(-9.396926207859E-1,-3.420201433257E-1,0.E0));
#359=DIRECTION('',(3.420201433257E-1,-9.396926207859E-1,0.E0));
#360=AXIS2_PLACEMENT_3D('',#357,#358,#359);
#361=PLANE('',#360);
#362=ORIENTED_EDGE('',*,*,#279,.F.);
#364=ORIENTED_EDGE('',*,*,#363,.F.);
#366=ORIENTED_EDGE('',*,*,#365,.T.);
#367=ORIENTED_EDGE('',*,*,#348,.T.);
#368=EDGE_LOOP('',(#362,#364,#366,#367));
#369=FACE_OUTER_BOUND('',#368,.F.);
#370=ADVANCED_FACE('',(#369),#361,.F.);
#371=CARTESIAN_POINT('',(1.2E1,1.2E1,0.E0));
#372=DIRECTION('',(0.E0,1.E0,0.E0));
#373=DIRECTION('',(-1.E0,0.E0,0.E0));
#374=AXIS2_PLACEMENT_3D('',#371,#372,#373);
#375=PLANE('',#374);
#376=ORIENTED_EDGE('',*,*,#310,.F.);
#378=ORIENTED_EDGE('',*,*,#377,.F.);
#379=ORIENTED_EDGE('',*,*,#363,.T.);
#380=ORIENTED_EDGE('',*,*,#277,.T.);
#381=EDGE_LOOP('',(#376,#378,#379,#380));
#382=FACE_OUTER_BOUND('',#381,.F.);
#383=ADVANCED_FACE('',(#382),#375,.T.);
#384=CARTESIAN_POINT('',(0.E0,0.E0,-1.5E0));
#385=DIRECTION('',(0.E0,0.E0,1.E0));
#386=DIRECTION('',(1.E0,0.E0,0.E0));
#387=AXIS2_PLACEMENT_3D('',#384,#385,#386);
#388=PLANE('',#387);
#389=ORIENTED_EDGE('',*,*,#308,.F.);
#390=ORIENTED_EDGE('',*,*,#324,.T.);
#391=ORIENTED_EDGE('',*,*,#337,.T.);
#392=ORIENTED_EDGE('',*,*,#350,.T.);
#393=ORIENTED_EDGE('',*,*,#365,.F.);
#394=ORIENTED_EDGE('',*,*,#377,.T.);
#395=EDGE_LOOP('',(#389,#390,#391,#392,#393,#394));
#396=FACE_OUTER_BOUND('',#395,.F.);
#398=ORIENTED_EDGE('',*,*,#397,.T.);
#400=ORIENTED_EDGE('',*,*,#399,.T.);
#401=EDGE_LOOP('',(#398,#400));
#402=FACE_BOUND('',#401,.F.);
#404=ORIENTED_EDGE('',*,*,#403,.T.);
#406=ORIENTED_EDGE('',*,*,#405,.T.);
#407=EDGE_LOOP('',(#404,#406));
#408=FACE_BOUND('',#407,.F.);
#410=ORIENTED_EDGE('',*,*,#409,.T.);
#412=ORIENTED_EDGE('',*,*,#411,.T.);
#413=EDGE_LOOP('',(#410,#412));
#414=FACE_BOUND('',#413,.F.);
#415=ADVANCED_FACE('',(#396,#402,#408,#414),#388,.F.);
#416=CARTESIAN_POINT('',(1.025E1,4.E0,-1.425E0));
#417=DIRECTION('',(0.E0,0.E0,-1.E0));
#418=DIRECTION('',(0.E0,-1.E0,0.E0));
#419=AXIS2_PLACEMENT_3D('',#416,#417,#418);
#420=CYLINDRICAL_SURFACE('',#419,6.75E-1);
#421=ORIENTED_EDGE('',*,*,#397,.F.);
#423=ORIENTED_EDGE('',*,*,#422,.F.);
#425=ORIENTED_EDGE('',*,*,#424,.T.);
#427=ORIENTED_EDGE('',*,*,#426,.T.);
#428=EDGE_LOOP('',(#421,#423,#425,#427));
#429=FACE_OUTER_BOUND('',#428,.F.);
#430=ADVANCED_FACE('',(#429),#420,.T.);
#431=CARTESIAN_POINT('',(1.025E1,4.E0,-1.425E0));
#432=DIRECTION('',(0.E0,0.E0,-1.E0));
#433=DIRECTION('',(0.E0,-1.E0,0.E0));
#434=AXIS2_PLACEMENT_3D('',#431,#432,#433);
#435=CYLINDRICAL_SURFACE('',#434,6.75E-1);
#436=ORIENTED_EDGE('',*,*,#399,.F.);
#437=ORIENTED_EDGE('',*,*,#426,.F.);
#439=ORIENTED_EDGE('',*,*,#438,.F.);
#440=ORIENTED_EDGE('',*,*,#422,.T.);
#441=EDGE_LOOP('',(#436,#437,#439,#440));
#442=FACE_OUTER_BOUND('',#441,.F.);
#443=ADVANCED_FACE('',(#442),#435,.T.);
#444=CARTESIAN_POINT('',(1.025E1,4.E0,-3.E0));
#445=DIRECTION('',(0.E0,0.E0,-1.E0));
#446=DIRECTION('',(0.E0,-1.E0,0.E0));
#447=AXIS2_PLACEMENT_3D('',#444,#445,#446);
#448=PLANE('',#447);
#449=ORIENTED_EDGE('',*,*,#438,.T.);
#450=ORIENTED_EDGE('',*,*,#424,.F.);
#451=EDGE_LOOP('',(#449,#450));
#452=FACE_OUTER_BOUND('',#451,.F.);
#453=ADVANCED_FACE('',(#452),#448,.T.);
#454=CARTESIAN_POINT('',(-1.025E1,4.E0,-1.425E0));
#455=DIRECTION('',(0.E0,0.E0,-1.E0));
#456=DIRECTION('',(0.E0,-1.E0,0.E0));
#457=AXIS2_PLACEMENT_3D('',#454,#455,#456);
#458=CYLINDRICAL_SURFACE('',#457,6.75E-1);
#459=ORIENTED_EDGE('',*,*,#403,.F.);
#461=ORIENTED_EDGE('',*,*,#460,.F.);
#463=ORIENTED_EDGE('',*,*,#462,.T.);
#465=ORIENTED_EDGE('',*,*,#464,.T.);
#466=EDGE_LOOP('',(#459,#461,#463,#465));
#467=FACE_OUTER_BOUND('',#466,.F.);
#468=ADVANCED_FACE('',(#467),#458,.T.);
#469=CARTESIAN_POINT('',(-1.025E1,4.E0,-1.425E0));
#470=DIRECTION('',(0.E0,0.E0,-1.E0));
#471=DIRECTION('',(0.E0,-1.E0,0.E0));
#472=AXIS2_PLACEMENT_3D('',#469,#470,#471);
#473=CYLINDRICAL_SURFACE('',#472,6.75E-1);
#474=ORIENTED_EDGE('',*,*,#405,.F.);
#475=ORIENTED_EDGE('',*,*,#464,.F.);
#477=ORIENTED_EDGE('',*,*,#476,.F.);
#478=ORIENTED_EDGE('',*,*,#460,.T.);
#479=EDGE_LOOP('',(#474,#475,#477,#478));
#480=FACE_OUTER_BOUND('',#479,.F.);
#481=ADVANCED_FACE('',(#480),#473,.T.);
#482=CARTESIAN_POINT('',(-1.025E1,4.E0,-3.E0));
#483=DIRECTION('',(0.E0,0.E0,-1.E0));
#484=DIRECTION('',(0.E0,-1.E0,0.E0));
#485=AXIS2_PLACEMENT_3D('',#482,#483,#484);
#486=PLANE('',#485);
#487=ORIENTED_EDGE('',*,*,#476,.T.);
#488=ORIENTED_EDGE('',*,*,#462,.F.);
#489=EDGE_LOOP('',(#487,#488));
#490=FACE_OUTER_BOUND('',#489,.F.);
#491=ADVANCED_FACE('',(#490),#486,.T.);
#492=CARTESIAN_POINT('',(8.5E0,-8.7E0,-1.425E0));
#493=DIRECTION('',(0.E0,0.E0,-1.E0));
#494=DIRECTION('',(0.E0,-1.E0,0.E0));
#495=AXIS2_PLACEMENT_3D('',#492,#493,#494);
#496=CYLINDRICAL_SURFACE('',#495,6.75E-1);
#497=ORIENTED_EDGE('',*,*,#409,.F.);
#499=ORIENTED_EDGE('',*,*,#498,.F.);
#501=ORIENTED_EDGE('',*,*,#500,.T.);
#503=ORIENTED_EDGE('',*,*,#502,.T.);
#504=EDGE_LOOP('',(#497,#499,#501,#503));
#505=FACE_OUTER_BOUND('',#504,.F.);
#506=ADVANCED_FACE('',(#505),#496,.T.);
#507=CARTESIAN_POINT('',(8.5E0,-8.7E0,-1.425E0));
#508=DIRECTION('',(0.E0,0.E0,-1.E0));
#509=DIRECTION('',(0.E0,-1.E0,0.E0));
#510=AXIS2_PLACEMENT_3D('',#507,#508,#509);
#511=CYLINDRICAL_SURFACE('',#510,6.75E-1);
#512=ORIENTED_EDGE('',*,*,#411,.F.);
#513=ORIENTED_EDGE('',*,*,#502,.F.);
#515=ORIENTED_EDGE('',*,*,#514,.F.);
#516=ORIENTED_EDGE('',*,*,#498,.T.);
#517=EDGE_LOOP('',(#512,#513,#515,#516));
#518=FACE_OUTER_BOUND('',#517,.F.);
#519=ADVANCED_FACE('',(#518),#511,.T.);
#520=CARTESIAN_POINT('',(8.5E0,-8.7E0,-3.E0));
#521=DIRECTION('',(0.E0,0.E0,-1.E0));
#522=DIRECTION('',(0.E0,-1.E0,0.E0));
#523=AXIS2_PLACEMENT_3D('',#520,#521,#522);
#524=PLANE('',#523);
#525=ORIENTED_EDGE('',*,*,#514,.T.);
#526=ORIENTED_EDGE('',*,*,#500,.F.);
#527=EDGE_LOOP('',(#525,#526));
#528=FACE_OUTER_BOUND('',#527,.F.);
#529=ADVANCED_FACE('',(#528),#524,.T.);
#530=CARTESIAN_POINT('',(-4.5E0,1.1E1,0.E0));
#531=DIRECTION('',(-1.E0,0.E0,0.E0));
#532=DIRECTION('',(0.E0,-1.E0,0.E0));
#533=AXIS2_PLACEMENT_3D('',#530,#531,#532);
#534=PLANE('',#533);
#535=ORIENTED_EDGE('',*,*,#289,.F.);
#537=ORIENTED_EDGE('',*,*,#536,.T.);
#539=ORIENTED_EDGE('',*,*,#538,.T.);
#541=ORIENTED_EDGE('',*,*,#540,.F.);
#542=EDGE_LOOP('',(#535,#537,#539,#541));
#543=FACE_OUTER_BOUND('',#542,.F.);
#544=ADVANCED_FACE('',(#543),#534,.F.);
#545=CARTESIAN_POINT('',(4.5E0,1.1E1,0.E0));
#546=DIRECTION('',(0.E0,1.E0,0.E0));
#547=DIRECTION('',(-1.E0,0.E0,0.E0));
#548=AXIS2_PLACEMENT_3D('',#545,#546,#547);
#549=PLANE('',#548);
#550=ORIENTED_EDGE('',*,*,#295,.F.);
#552=ORIENTED_EDGE('',*,*,#551,.T.);
#554=ORIENTED_EDGE('',*,*,#553,.T.);
#555=ORIENTED_EDGE('',*,*,#536,.F.);
#556=EDGE_LOOP('',(#550,#552,#554,#555));
#557=FACE_OUTER_BOUND('',#556,.F.);
#558=ADVANCED_FACE('',(#557),#549,.F.);
#559=CARTESIAN_POINT('',(4.5E0,2.E0,0.E0));
#560=DIRECTION('',(1.E0,0.E0,0.E0));
#561=DIRECTION('',(0.E0,1.E0,0.E0));
#562=AXIS2_PLACEMENT_3D('',#559,#560,#561);
#563=PLANE('',#562);
#564=ORIENTED_EDGE('',*,*,#293,.F.);
#566=ORIENTED_EDGE('',*,*,#565,.T.);
#568=ORIENTED_EDGE('',*,*,#567,.T.);
#569=ORIENTED_EDGE('',*,*,#551,.F.);
#570=EDGE_LOOP('',(#564,#566,#568,#569));
#571=FACE_OUTER_BOUND('',#570,.F.);
#572=ADVANCED_FACE('',(#571),#563,.F.);
#573=CARTESIAN_POINT('',(-4.5E0,2.E0,0.E0));
#574=DIRECTION('',(0.E0,-1.E0,0.E0));
#575=DIRECTION('',(1.E0,0.E0,0.E0));
#576=AXIS2_PLACEMENT_3D('',#573,#574,#575);
#577=PLANE('',#576);
#578=ORIENTED_EDGE('',*,*,#291,.F.);
#579=ORIENTED_EDGE('',*,*,#540,.T.);
#581=ORIENTED_EDGE('',*,*,#580,.T.);
#582=ORIENTED_EDGE('',*,*,#565,.F.);
#583=EDGE_LOOP('',(#578,#579,#581,#582));
#584=FACE_OUTER_BOUND('',#583,.F.);
#585=ADVANCED_FACE('',(#584),#577,.F.);
#586=CARTESIAN_POINT('',(0.E0,0.E0,-2.E-1));
#587=DIRECTION('',(0.E0,0.E0,1.E0));
#588=DIRECTION('',(1.E0,0.E0,0.E0));
#589=AXIS2_PLACEMENT_3D('',#586,#587,#588);
#590=PLANE('',#589);
#591=ORIENTED_EDGE('',*,*,#538,.F.);
#592=ORIENTED_EDGE('',*,*,#553,.F.);
#593=ORIENTED_EDGE('',*,*,#567,.F.);
#594=ORIENTED_EDGE('',*,*,#580,.F.);
#595=EDGE_LOOP('',(#591,#592,#593,#594));
#596=FACE_OUTER_BOUND('',#595,.F.);
#597=ADVANCED_FACE('',(#596),#590,.T.);
#598=CLOSED_SHELL('',(#299,#314,#328,#342,#356,#370,#383,#415,#430,#443,#453,
#468,#481,#491,#506,#519,#529,#544,#558,#572,#585,#597));
#599=MANIFOLD_SOLID_BREP('',#598);
#600=(LENGTH_UNIT()NAMED_UNIT(*)SI_UNIT(.MILLI.,.METRE.));
#601=DIMENSIONAL_EXPONENTS(0.E0,0.E0,0.E0,0.E0,0.E0,0.E0,0.E0);
#602=(NAMED_UNIT(*)PLANE_ANGLE_UNIT()SI_UNIT($,.RADIAN.));
#603=PLANE_ANGLE_MEASURE_WITH_UNIT(PLANE_ANGLE_MEASURE(1.745329251994E-2),#602);
#604=(CONVERSION_BASED_UNIT('DEGREE',#603)NAMED_UNIT(#601)PLANE_ANGLE_UNIT());
#605=(NAMED_UNIT(*)SI_UNIT($,.STERADIAN.)SOLID_ANGLE_UNIT());
#606=UNCERTAINTY_MEASURE_WITH_UNIT(LENGTH_MEASURE(1.E-2),#600,'closure',
'Maximum model space distance between geometric entities at asserted connectivities');
#607=(GEOMETRIC_REPRESENTATION_CONTEXT(3)GLOBAL_UNCERTAINTY_ASSIGNED_CONTEXT((
#606))GLOBAL_UNIT_ASSIGNED_CONTEXT((#600,#604,#605))REPRESENTATION_CONTEXT
('ID1','3'));
#609=APPLICATION_CONTEXT(
'CONFIGURATION CONTROLLED 3D DESIGNS OF MECHANICAL PARTS AND ASSEMBLIES');
#610=APPLICATION_PROTOCOL_DEFINITION('international standard',
'config_control_design',1994,#609);
#611=DESIGN_CONTEXT('',#609,'design');
#612=MECHANICAL_CONTEXT('',#609,'mechanical');
#613=PRODUCT('SRK2515AP_STEP','SRK2515AP_STEP','NOT SPECIFIED',(#612));
#614=PRODUCT_DEFINITION_FORMATION_WITH_SPECIFIED_SOURCE('1','LAST_VERSION',#613,
.MADE.);
#618=PRODUCT_CATEGORY('part','');
#619=PRODUCT_RELATED_PRODUCT_CATEGORY('detail','',(#613));
#620=PRODUCT_CATEGORY_RELATIONSHIP('','',#618,#619);
#621=SECURITY_CLASSIFICATION_LEVEL('unclassified');
#622=SECURITY_CLASSIFICATION('','',#621);
#623=CC_DESIGN_SECURITY_CLASSIFICATION(#622,(#614));
#624=APPROVAL_STATUS('approved');
#625=APPROVAL(#624,'');
#626=CC_DESIGN_APPROVAL(#625,(#622,#614,#615));
#627=CALENDAR_DATE(111,15,12);
#628=COORDINATED_UNIVERSAL_TIME_OFFSET(1,0,.AHEAD.);
#629=LOCAL_TIME(14,41,4.6E1,#628);
#630=DATE_AND_TIME(#627,#629);
#631=APPROVAL_DATE_TIME(#630,#625);
#632=DATE_TIME_ROLE('creation_date');
#633=CC_DESIGN_DATE_AND_TIME_ASSIGNMENT(#630,#632,(#615));
#634=DATE_TIME_ROLE('classification_date');
#635=CC_DESIGN_DATE_AND_TIME_ASSIGNMENT(#630,#634,(#622));
#636=PERSON('UNSPECIFIED','UNSPECIFIED',$,$,$,$);
#637=ORGANIZATION('UNSPECIFIED','UNSPECIFIED','UNSPECIFIED');
#638=PERSON_AND_ORGANIZATION(#636,#637);
#639=APPROVAL_ROLE('approver');
#640=APPROVAL_PERSON_ORGANIZATION(#638,#625,#639);
#641=PERSON_AND_ORGANIZATION_ROLE('creator');
#642=CC_DESIGN_PERSON_AND_ORGANIZATION_ASSIGNMENT(#638,#641,(#614,#615));
#643=PERSON_AND_ORGANIZATION_ROLE('design_supplier');
#644=CC_DESIGN_PERSON_AND_ORGANIZATION_ASSIGNMENT(#638,#643,(#614));
#645=PERSON_AND_ORGANIZATION_ROLE('classification_officer');
#646=CC_DESIGN_PERSON_AND_ORGANIZATION_ASSIGNMENT(#638,#645,(#622));
#647=PERSON_AND_ORGANIZATION_ROLE('design_owner');
#648=CC_DESIGN_PERSON_AND_ORGANIZATION_ASSIGNMENT(#638,#647,(#613));
#94=CIRCLE('',#93,6.75E-1);
#99=CIRCLE('',#98,6.75E-1);
#104=CIRCLE('',#103,6.75E-1);
#109=CIRCLE('',#108,6.75E-1);
#114=CIRCLE('',#113,6.75E-1);
#119=CIRCLE('',#118,6.75E-1);
#124=CIRCLE('',#123,6.75E-1);
#133=CIRCLE('',#132,6.75E-1);
#142=CIRCLE('',#141,6.75E-1);
#151=CIRCLE('',#150,6.75E-1);
#160=CIRCLE('',#159,6.75E-1);
#169=CIRCLE('',#168,6.75E-1);
#275=EDGE_CURVE('',#216,#217,#5,.T.);
#277=EDGE_CURVE('',#220,#217,#9,.T.);
#279=EDGE_CURVE('',#220,#221,#13,.T.);
#281=EDGE_CURVE('',#209,#221,#17,.T.);
#283=EDGE_CURVE('',#208,#209,#21,.T.);
#285=EDGE_CURVE('',#216,#208,#25,.T.);
#289=EDGE_CURVE('',#240,#241,#29,.T.);
#291=EDGE_CURVE('',#241,#243,#33,.T.);
#293=EDGE_CURVE('',#243,#245,#37,.T.);
#295=EDGE_CURVE('',#245,#240,#41,.T.);
#306=EDGE_CURVE('',#223,#216,#45,.T.);
#308=EDGE_CURVE('',#223,#227,#69,.T.);
#310=EDGE_CURVE('',#227,#217,#61,.T.);
#322=EDGE_CURVE('',#208,#212,#49,.T.);
#324=EDGE_CURVE('',#223,#212,#73,.T.);
#335=EDGE_CURVE('',#209,#213,#57,.T.);
#337=EDGE_CURVE('',#212,#213,#77,.T.);
#348=EDGE_CURVE('',#225,#221,#53,.T.);
#350=EDGE_CURVE('',#213,#225,#81,.T.);
#363=EDGE_CURVE('',#229,#220,#65,.T.);
#365=EDGE_CURVE('',#229,#225,#85,.T.);
#377=EDGE_CURVE('',#229,#227,#89,.T.);
#397=EDGE_CURVE('',#252,#253,#94,.T.);
#399=EDGE_CURVE('',#253,#252,#99,.T.);
#403=EDGE_CURVE('',#260,#261,#104,.T.);
#405=EDGE_CURVE('',#261,#260,#109,.T.);
#409=EDGE_CURVE('',#268,#269,#114,.T.);
#411=EDGE_CURVE('',#269,#268,#119,.T.);
#422=EDGE_CURVE('',#248,#252,#137,.T.);
#424=EDGE_CURVE('',#248,#249,#124,.T.);
#426=EDGE_CURVE('',#249,#253,#128,.T.);
#438=EDGE_CURVE('',#248,#249,#133,.T.);
#460=EDGE_CURVE('',#256,#260,#155,.T.);
#462=EDGE_CURVE('',#256,#257,#142,.T.);
#464=EDGE_CURVE('',#257,#261,#146,.T.);
#476=EDGE_CURVE('',#256,#257,#151,.T.);
#498=EDGE_CURVE('',#264,#268,#173,.T.);
#500=EDGE_CURVE('',#264,#265,#160,.T.);
#502=EDGE_CURVE('',#265,#269,#164,.T.);
#514=EDGE_CURVE('',#264,#265,#169,.T.);
#536=EDGE_CURVE('',#240,#232,#177,.T.);
#538=EDGE_CURVE('',#232,#233,#193,.T.);
#540=EDGE_CURVE('',#241,#233,#189,.T.);
#551=EDGE_CURVE('',#245,#237,#181,.T.);
#553=EDGE_CURVE('',#237,#232,#197,.T.);
#565=EDGE_CURVE('',#243,#235,#185,.T.);
#567=EDGE_CURVE('',#235,#237,#201,.T.);
#580=EDGE_CURVE('',#233,#235,#205,.T.);
#608=ADVANCED_BREP_SHAPE_REPRESENTATION('',(#599),#607);
#615=PRODUCT_DEFINITION('design','',#614,#611);
#616=PRODUCT_DEFINITION_SHAPE('','SHAPE FOR SRK2515AP_STEP.',#615);
#617=SHAPE_DEFINITION_REPRESENTATION(#616,#608);
ENDSEC;
END-ISO-10303-21;
