ISO-10303-21;
HEADER;
/* Generated by software containing ST-Developer
 * from STEP Tools, Inc. (www.steptools.com) 
 */
/* OPTION: using custom schema-name function */

FILE_DESCRIPTION(
/* description */ (''),
/* implementation_level */ '2;1');

FILE_NAME(
/* name */ 'ap16vol1.stp',
/* time_stamp */ '2014-12-02T07:13:35+01:00',
/* author */ (''),
/* organization */ (''),
/* preprocessor_version */ 'ST-DEVELOPER v15',
/* originating_system */ 'SIEMENS PLM Software NX 8.5',
/* authorisation */ '');

FILE_SCHEMA (('CONFIG_CONTROL_DESIGN'));
ENDSEC;

DATA;
#10=SHAPE_REPRESENTATION_RELATIONSHIP('None',
'relationship between ap16vol1-None and ap16vol1-None',#92,#11);
#11=ADVANCED_BREP_SHAPE_REPRESENTATION('ap16vol1-None',(#93),#644);
#12=CC_DESIGN_APPROVAL(#24,(#82));
#13=CC_DESIGN_APPROVAL(#25,(#84));
#14=CC_DESIGN_APPROVAL(#26,(#31));
#15=APPROVAL_PERSON_ORGANIZATION(#69,#24,#18);
#16=APPROVAL_PERSON_ORGANIZATION(#70,#25,#19);
#17=APPROVAL_PERSON_ORGANIZATION(#71,#26,#20);
#18=APPROVAL_ROLE('approver');
#19=APPROVAL_ROLE('approver');
#20=APPROVAL_ROLE('approver');
#21=APPROVAL_DATE_TIME(#39,#24);
#22=APPROVAL_DATE_TIME(#40,#25);
#23=APPROVAL_DATE_TIME(#41,#26);
#24=APPROVAL(#27,' ');
#25=APPROVAL(#28,' ');
#26=APPROVAL(#29,' ');
#27=APPROVAL_STATUS('not_yet_approved');
#28=APPROVAL_STATUS('not_yet_approved');
#29=APPROVAL_STATUS('not_yet_approved');
#30=CC_DESIGN_SECURITY_CLASSIFICATION(#31,(#84));
#31=SECURITY_CLASSIFICATION(' ',' ',#32);
#32=SECURITY_CLASSIFICATION_LEVEL('confidential');
#33=CC_DESIGN_DATE_AND_TIME_ASSIGNMENT(#37,#35,(#82));
#34=CC_DESIGN_DATE_AND_TIME_ASSIGNMENT(#38,#36,(#31));
#35=DATE_TIME_ROLE('creation_date');
#36=DATE_TIME_ROLE('classification_date');
#37=DATE_AND_TIME(#52,#42);
#38=DATE_AND_TIME(#53,#43);
#39=DATE_AND_TIME(#54,#44);
#40=DATE_AND_TIME(#55,#45);
#41=DATE_AND_TIME(#56,#46);
#42=LOCAL_TIME(0,0,0.,#47);
#43=LOCAL_TIME(0,0,0.,#48);
#44=LOCAL_TIME(0,0,0.,#49);
#45=LOCAL_TIME(0,0,0.,#50);
#46=LOCAL_TIME(0,0,0.,#51);
#47=COORDINATED_UNIVERSAL_TIME_OFFSET(0,0,.BEHIND.);
#48=COORDINATED_UNIVERSAL_TIME_OFFSET(0,0,.BEHIND.);
#49=COORDINATED_UNIVERSAL_TIME_OFFSET(0,0,.BEHIND.);
#50=COORDINATED_UNIVERSAL_TIME_OFFSET(0,0,.BEHIND.);
#51=COORDINATED_UNIVERSAL_TIME_OFFSET(0,0,.BEHIND.);
#52=CALENDAR_DATE(0,1,1);
#53=CALENDAR_DATE(0,1,1);
#54=CALENDAR_DATE(0,1,1);
#55=CALENDAR_DATE(0,1,1);
#56=CALENDAR_DATE(0,1,1);
#57=CC_DESIGN_PERSON_AND_ORGANIZATION_ASSIGNMENT(#65,#61,(#82,#84));
#58=CC_DESIGN_PERSON_AND_ORGANIZATION_ASSIGNMENT(#66,#62,(#86));
#59=CC_DESIGN_PERSON_AND_ORGANIZATION_ASSIGNMENT(#67,#63,(#84));
#60=CC_DESIGN_PERSON_AND_ORGANIZATION_ASSIGNMENT(#68,#64,(#31));
#61=PERSON_AND_ORGANIZATION_ROLE('creator');
#62=PERSON_AND_ORGANIZATION_ROLE('design_owner');
#63=PERSON_AND_ORGANIZATION_ROLE('design_supplier');
#64=PERSON_AND_ORGANIZATION_ROLE('classification_officer');
#65=PERSON_AND_ORGANIZATION(#79,#72);
#66=PERSON_AND_ORGANIZATION(#79,#73);
#67=PERSON_AND_ORGANIZATION(#79,#74);
#68=PERSON_AND_ORGANIZATION(#79,#75);
#69=PERSON_AND_ORGANIZATION(#79,#76);
#70=PERSON_AND_ORGANIZATION(#79,#77);
#71=PERSON_AND_ORGANIZATION(#79,#78);
#72=ORGANIZATION(' ',' ',' ');
#73=ORGANIZATION(' ',' ',' ');
#74=ORGANIZATION(' ',' ',' ');
#75=ORGANIZATION(' ',' ',' ');
#76=ORGANIZATION(' ',' ',' ');
#77=ORGANIZATION(' ',' ',' ');
#78=ORGANIZATION(' ',' ',' ');
#79=PERSON(' ',' ',' ',(' '),$,$);
#80=SHAPE_DEFINITION_REPRESENTATION(#81,#92);
#81=PRODUCT_DEFINITION_SHAPE('','',#82);
#82=PRODUCT_DEFINITION(' ','',#84,#83);
#83=DESIGN_CONTEXT('',#91,'design');
#84=PRODUCT_DEFINITION_FORMATION_WITH_SPECIFIED_SOURCE(' ',' ',#86,
 .NOT_KNOWN.);
#85=PRODUCT_RELATED_PRODUCT_CATEGORY('detail','',(#86));
#86=PRODUCT('ap16vol1','ap16vol1',' ',(#89));
#87=PRODUCT_CATEGORY('part',' ');
#88=PRODUCT_CATEGORY(' ','');
#89=MECHANICAL_CONTEXT(' ',#91,'mechanical');
#90=APPLICATION_PROTOCOL_DEFINITION('international standard',
'config_control_design',2010,#91);
#91=APPLICATION_CONTEXT(
'configuration controlled 3D designs of mechanical parts and assemblie
s');
#92=SHAPE_REPRESENTATION('ap16vol1-None',(#418),#644);
#93=MANIFOLD_SOLID_BREP('',#94);
#94=CLOSED_SHELL('',(#123,#124,#125,#126,#127,#128,#129,#130,#131,#132,
#133,#134,#135,#136,#137,#138,#139,#140,#141,#142,#143));
#95=CYLINDRICAL_SURFACE('',#434,0.5);
#96=CYLINDRICAL_SURFACE('',#436,0.5);
#97=CYLINDRICAL_SURFACE('',#438,0.5);
#98=CYLINDRICAL_SURFACE('',#440,0.5);
#99=CYLINDRICAL_SURFACE('',#442,0.5);
#100=CYLINDRICAL_SURFACE('',#444,0.5);
#101=CYLINDRICAL_SURFACE('',#445,0.5);
#102=CYLINDRICAL_SURFACE('',#448,1.5);
#103=CYLINDRICAL_SURFACE('',#451,1.5);
#104=ELLIPSE('',#433,0.541196100146197,0.5);
#105=ELLIPSE('',#435,0.504314480290076,0.5);
#106=ELLIPSE('',#437,0.517638090205041,0.5);
#107=ELLIPSE('',#439,0.517638090205041,0.5);
#108=ELLIPSE('',#441,0.504314480290076,0.5);
#109=ELLIPSE('',#443,0.541196100146197,0.5);
#110=FACE_BOUND('',#182,.T.);
#111=FACE_BOUND('',#183,.T.);
#112=FACE_BOUND('',#184,.T.);
#113=FACE_BOUND('',#194,.T.);
#114=FACE_BOUND('',#195,.T.);
#115=FACE_BOUND('',#197,.T.);
#116=FACE_BOUND('',#198,.T.);
#117=CIRCLE('',#426,0.5);
#118=CIRCLE('',#427,0.5);
#119=CIRCLE('',#429,1.5);
#120=CIRCLE('',#430,1.5);
#121=CIRCLE('',#446,1.5);
#122=CIRCLE('',#449,1.5);
#123=ADVANCED_FACE('',(#156),#144,.T.);
#124=ADVANCED_FACE('',(#157),#145,.T.);
#125=ADVANCED_FACE('',(#158),#146,.T.);
#126=ADVANCED_FACE('',(#159),#147,.T.);
#127=ADVANCED_FACE('',(#160),#148,.F.);
#128=ADVANCED_FACE('',(#161),#149,.F.);
#129=ADVANCED_FACE('',(#162),#150,.F.);
#130=ADVANCED_FACE('',(#163),#151,.F.);
#131=ADVANCED_FACE('',(#110,#111,#112),#152,.F.);
#132=ADVANCED_FACE('',(#164),#153,.T.);
#133=ADVANCED_FACE('',(#165),#95,.T.);
#134=ADVANCED_FACE('',(#166),#96,.T.);
#135=ADVANCED_FACE('',(#167),#97,.T.);
#136=ADVANCED_FACE('',(#168),#98,.T.);
#137=ADVANCED_FACE('',(#169),#99,.T.);
#138=ADVANCED_FACE('',(#170),#100,.T.);
#139=ADVANCED_FACE('',(#171),#101,.T.);
#140=ADVANCED_FACE('',(#172),#154,.F.);
#141=ADVANCED_FACE('',(#113,#114),#102,.F.);
#142=ADVANCED_FACE('',(#173),#155,.F.);
#143=ADVANCED_FACE('',(#115,#116),#103,.F.);
#144=PLANE('',#419);
#145=PLANE('',#420);
#146=PLANE('',#421);
#147=PLANE('',#422);
#148=PLANE('',#423);
#149=PLANE('',#424);
#150=PLANE('',#425);
#151=PLANE('',#428);
#152=PLANE('',#431);
#153=PLANE('',#432);
#154=PLANE('',#447);
#155=PLANE('',#450);
#156=FACE_OUTER_BOUND('',#174,.T.);
#157=FACE_OUTER_BOUND('',#175,.T.);
#158=FACE_OUTER_BOUND('',#176,.T.);
#159=FACE_OUTER_BOUND('',#177,.T.);
#160=FACE_OUTER_BOUND('',#178,.T.);
#161=FACE_OUTER_BOUND('',#179,.T.);
#162=FACE_OUTER_BOUND('',#180,.T.);
#163=FACE_OUTER_BOUND('',#181,.T.);
#164=FACE_OUTER_BOUND('',#185,.T.);
#165=FACE_OUTER_BOUND('',#186,.T.);
#166=FACE_OUTER_BOUND('',#187,.T.);
#167=FACE_OUTER_BOUND('',#188,.T.);
#168=FACE_OUTER_BOUND('',#189,.T.);
#169=FACE_OUTER_BOUND('',#190,.T.);
#170=FACE_OUTER_BOUND('',#191,.T.);
#171=FACE_OUTER_BOUND('',#192,.T.);
#172=FACE_OUTER_BOUND('',#193,.T.);
#173=FACE_OUTER_BOUND('',#196,.T.);
#174=EDGE_LOOP('',(#199,#200,#201,#202));
#175=EDGE_LOOP('',(#203,#204,#205,#206));
#176=EDGE_LOOP('',(#207,#208,#209,#210));
#177=EDGE_LOOP('',(#211,#212,#213,#214));
#178=EDGE_LOOP('',(#215,#216,#217,#218));
#179=EDGE_LOOP('',(#219,#220,#221,#222));
#180=EDGE_LOOP('',(#223,#224,#225,#226));
#181=EDGE_LOOP('',(#227,#228,#229,#230,#231,#232));
#182=EDGE_LOOP('',(#233));
#183=EDGE_LOOP('',(#234));
#184=EDGE_LOOP('',(#235,#236,#237,#238,#239,#240,#241,#242));
#185=EDGE_LOOP('',(#243,#244,#245,#246,#247,#248,#249,#250));
#186=EDGE_LOOP('',(#251,#252,#253,#254));
#187=EDGE_LOOP('',(#255,#256,#257,#258));
#188=EDGE_LOOP('',(#259,#260,#261,#262));
#189=EDGE_LOOP('',(#263,#264,#265,#266));
#190=EDGE_LOOP('',(#267,#268,#269,#270));
#191=EDGE_LOOP('',(#271,#272,#273,#274));
#192=EDGE_LOOP('',(#275,#276,#277,#278));
#193=EDGE_LOOP('',(#279));
#194=EDGE_LOOP('',(#280));
#195=EDGE_LOOP('',(#281));
#196=EDGE_LOOP('',(#282));
#197=EDGE_LOOP('',(#283));
#198=EDGE_LOOP('',(#284));
#199=ORIENTED_EDGE('',*,*,#313,.T.);
#200=ORIENTED_EDGE('',*,*,#314,.T.);
#201=ORIENTED_EDGE('',*,*,#315,.F.);
#202=ORIENTED_EDGE('',*,*,#316,.T.);
#203=ORIENTED_EDGE('',*,*,#317,.T.);
#204=ORIENTED_EDGE('',*,*,#318,.T.);
#205=ORIENTED_EDGE('',*,*,#313,.F.);
#206=ORIENTED_EDGE('',*,*,#319,.T.);
#207=ORIENTED_EDGE('',*,*,#320,.T.);
#208=ORIENTED_EDGE('',*,*,#321,.T.);
#209=ORIENTED_EDGE('',*,*,#317,.F.);
#210=ORIENTED_EDGE('',*,*,#322,.T.);
#211=ORIENTED_EDGE('',*,*,#323,.T.);
#212=ORIENTED_EDGE('',*,*,#324,.T.);
#213=ORIENTED_EDGE('',*,*,#320,.F.);
#214=ORIENTED_EDGE('',*,*,#325,.F.);
#215=ORIENTED_EDGE('',*,*,#326,.T.);
#216=ORIENTED_EDGE('',*,*,#327,.T.);
#217=ORIENTED_EDGE('',*,*,#323,.F.);
#218=ORIENTED_EDGE('',*,*,#328,.F.);
#219=ORIENTED_EDGE('',*,*,#329,.T.);
#220=ORIENTED_EDGE('',*,*,#330,.T.);
#221=ORIENTED_EDGE('',*,*,#326,.F.);
#222=ORIENTED_EDGE('',*,*,#331,.F.);
#223=ORIENTED_EDGE('',*,*,#332,.T.);
#224=ORIENTED_EDGE('',*,*,#333,.T.);
#225=ORIENTED_EDGE('',*,*,#329,.F.);
#226=ORIENTED_EDGE('',*,*,#334,.F.);
#227=ORIENTED_EDGE('',*,*,#335,.T.);
#228=ORIENTED_EDGE('',*,*,#336,.T.);
#229=ORIENTED_EDGE('',*,*,#332,.F.);
#230=ORIENTED_EDGE('',*,*,#337,.F.);
#231=ORIENTED_EDGE('',*,*,#315,.T.);
#232=ORIENTED_EDGE('',*,*,#338,.T.);
#233=ORIENTED_EDGE('',*,*,#339,.T.);
#234=ORIENTED_EDGE('',*,*,#340,.T.);
#235=ORIENTED_EDGE('',*,*,#316,.F.);
#236=ORIENTED_EDGE('',*,*,#337,.T.);
#237=ORIENTED_EDGE('',*,*,#334,.T.);
#238=ORIENTED_EDGE('',*,*,#331,.T.);
#239=ORIENTED_EDGE('',*,*,#328,.T.);
#240=ORIENTED_EDGE('',*,*,#325,.T.);
#241=ORIENTED_EDGE('',*,*,#322,.F.);
#242=ORIENTED_EDGE('',*,*,#319,.F.);
#243=ORIENTED_EDGE('',*,*,#341,.T.);
#244=ORIENTED_EDGE('',*,*,#342,.T.);
#245=ORIENTED_EDGE('',*,*,#335,.F.);
#246=ORIENTED_EDGE('',*,*,#343,.T.);
#247=ORIENTED_EDGE('',*,*,#344,.T.);
#248=ORIENTED_EDGE('',*,*,#345,.T.);
#249=ORIENTED_EDGE('',*,*,#346,.T.);
#250=ORIENTED_EDGE('',*,*,#347,.T.);
#251=ORIENTED_EDGE('',*,*,#338,.F.);
#252=ORIENTED_EDGE('',*,*,#314,.F.);
#253=ORIENTED_EDGE('',*,*,#348,.F.);
#254=ORIENTED_EDGE('',*,*,#343,.F.);
#255=ORIENTED_EDGE('',*,*,#348,.T.);
#256=ORIENTED_EDGE('',*,*,#318,.F.);
#257=ORIENTED_EDGE('',*,*,#349,.F.);
#258=ORIENTED_EDGE('',*,*,#344,.F.);
#259=ORIENTED_EDGE('',*,*,#349,.T.);
#260=ORIENTED_EDGE('',*,*,#321,.F.);
#261=ORIENTED_EDGE('',*,*,#350,.F.);
#262=ORIENTED_EDGE('',*,*,#345,.F.);
#263=ORIENTED_EDGE('',*,*,#350,.T.);
#264=ORIENTED_EDGE('',*,*,#324,.F.);
#265=ORIENTED_EDGE('',*,*,#351,.F.);
#266=ORIENTED_EDGE('',*,*,#346,.F.);
#267=ORIENTED_EDGE('',*,*,#351,.T.);
#268=ORIENTED_EDGE('',*,*,#327,.F.);
#269=ORIENTED_EDGE('',*,*,#352,.F.);
#270=ORIENTED_EDGE('',*,*,#347,.F.);
#271=ORIENTED_EDGE('',*,*,#352,.T.);
#272=ORIENTED_EDGE('',*,*,#330,.F.);
#273=ORIENTED_EDGE('',*,*,#353,.F.);
#274=ORIENTED_EDGE('',*,*,#341,.F.);
#275=ORIENTED_EDGE('',*,*,#336,.F.);
#276=ORIENTED_EDGE('',*,*,#342,.F.);
#277=ORIENTED_EDGE('',*,*,#353,.T.);
#278=ORIENTED_EDGE('',*,*,#333,.F.);
#279=ORIENTED_EDGE('',*,*,#354,.T.);
#280=ORIENTED_EDGE('',*,*,#354,.F.);
#281=ORIENTED_EDGE('',*,*,#340,.F.);
#282=ORIENTED_EDGE('',*,*,#355,.T.);
#283=ORIENTED_EDGE('',*,*,#355,.F.);
#284=ORIENTED_EDGE('',*,*,#339,.F.);
#285=VERTEX_POINT('',#553);
#286=VERTEX_POINT('',#554);
#287=VERTEX_POINT('',#556);
#288=VERTEX_POINT('',#558);
#289=VERTEX_POINT('',#562);
#290=VERTEX_POINT('',#563);
#291=VERTEX_POINT('',#568);
#292=VERTEX_POINT('',#569);
#293=VERTEX_POINT('',#574);
#294=VERTEX_POINT('',#575);
#295=VERTEX_POINT('',#580);
#296=VERTEX_POINT('',#581);
#297=VERTEX_POINT('',#586);
#298=VERTEX_POINT('',#587);
#299=VERTEX_POINT('',#592);
#300=VERTEX_POINT('',#593);
#301=VERTEX_POINT('',#598);
#302=VERTEX_POINT('',#599);
#303=VERTEX_POINT('',#605);
#304=VERTEX_POINT('',#607);
#305=VERTEX_POINT('',#610);
#306=VERTEX_POINT('',#611);
#307=VERTEX_POINT('',#614);
#308=VERTEX_POINT('',#616);
#309=VERTEX_POINT('',#618);
#310=VERTEX_POINT('',#620);
#311=VERTEX_POINT('',#637);
#312=VERTEX_POINT('',#641);
#313=EDGE_CURVE('',#285,#286,#356,.T.);
#314=EDGE_CURVE('',#286,#287,#357,.T.);
#315=EDGE_CURVE('',#288,#287,#358,.T.);
#316=EDGE_CURVE('',#288,#285,#359,.T.);
#317=EDGE_CURVE('',#289,#290,#360,.T.);
#318=EDGE_CURVE('',#290,#286,#361,.T.);
#319=EDGE_CURVE('',#285,#289,#362,.T.);
#320=EDGE_CURVE('',#291,#292,#363,.T.);
#321=EDGE_CURVE('',#292,#290,#364,.T.);
#322=EDGE_CURVE('',#289,#291,#365,.T.);
#323=EDGE_CURVE('',#293,#294,#366,.T.);
#324=EDGE_CURVE('',#294,#292,#367,.T.);
#325=EDGE_CURVE('',#293,#291,#368,.T.);
#326=EDGE_CURVE('',#295,#296,#369,.T.);
#327=EDGE_CURVE('',#296,#294,#370,.T.);
#328=EDGE_CURVE('',#295,#293,#371,.T.);
#329=EDGE_CURVE('',#297,#298,#372,.T.);
#330=EDGE_CURVE('',#298,#296,#373,.T.);
#331=EDGE_CURVE('',#297,#295,#374,.T.);
#332=EDGE_CURVE('',#299,#300,#375,.T.);
#333=EDGE_CURVE('',#300,#298,#376,.T.);
#334=EDGE_CURVE('',#299,#297,#377,.T.);
#335=EDGE_CURVE('',#301,#302,#378,.T.);
#336=EDGE_CURVE('',#302,#300,#117,.T.);
#337=EDGE_CURVE('',#288,#299,#379,.T.);
#338=EDGE_CURVE('',#287,#301,#118,.T.);
#339=EDGE_CURVE('',#303,#303,#119,.T.);
#340=EDGE_CURVE('',#304,#304,#120,.T.);
#341=EDGE_CURVE('',#305,#306,#380,.T.);
#342=EDGE_CURVE('',#306,#302,#381,.T.);
#343=EDGE_CURVE('',#301,#307,#382,.T.);
#344=EDGE_CURVE('',#307,#308,#383,.T.);
#345=EDGE_CURVE('',#308,#309,#384,.T.);
#346=EDGE_CURVE('',#309,#310,#385,.T.);
#347=EDGE_CURVE('',#310,#305,#386,.T.);
#348=EDGE_CURVE('',#307,#286,#104,.T.);
#349=EDGE_CURVE('',#308,#290,#105,.T.);
#350=EDGE_CURVE('',#309,#292,#106,.T.);
#351=EDGE_CURVE('',#310,#294,#107,.T.);
#352=EDGE_CURVE('',#305,#296,#108,.T.);
#353=EDGE_CURVE('',#306,#298,#109,.T.);
#354=EDGE_CURVE('',#311,#311,#121,.T.);
#355=EDGE_CURVE('',#312,#312,#122,.T.);
#356=LINE('',#552,#387);
#357=LINE('',#555,#388);
#358=LINE('',#557,#389);
#359=LINE('',#559,#390);
#360=LINE('',#561,#391);
#361=LINE('',#564,#392);
#362=LINE('',#565,#393);
#363=LINE('',#567,#394);
#364=LINE('',#570,#395);
#365=LINE('',#571,#396);
#366=LINE('',#573,#397);
#367=LINE('',#576,#398);
#368=LINE('',#577,#399);
#369=LINE('',#579,#400);
#370=LINE('',#582,#401);
#371=LINE('',#583,#402);
#372=LINE('',#585,#403);
#373=LINE('',#588,#404);
#374=LINE('',#589,#405);
#375=LINE('',#591,#406);
#376=LINE('',#594,#407);
#377=LINE('',#595,#408);
#378=LINE('',#597,#409);
#379=LINE('',#601,#410);
#380=LINE('',#609,#411);
#381=LINE('',#612,#412);
#382=LINE('',#613,#413);
#383=LINE('',#615,#414);
#384=LINE('',#617,#415);
#385=LINE('',#619,#416);
#386=LINE('',#621,#417);
#387=VECTOR('',#454,1.);
#388=VECTOR('',#455,1.);
#389=VECTOR('',#456,1.);
#390=VECTOR('',#457,1.);
#391=VECTOR('',#460,1.);
#392=VECTOR('',#461,1.);
#393=VECTOR('',#462,1.);
#394=VECTOR('',#465,1.);
#395=VECTOR('',#466,1.);
#396=VECTOR('',#467,1.);
#397=VECTOR('',#470,1.);
#398=VECTOR('',#471,1.);
#399=VECTOR('',#472,1.);
#400=VECTOR('',#475,1.);
#401=VECTOR('',#476,1.);
#402=VECTOR('',#477,1.);
#403=VECTOR('',#480,1.);
#404=VECTOR('',#481,1.);
#405=VECTOR('',#482,1.);
#406=VECTOR('',#485,1.);
#407=VECTOR('',#486,1.);
#408=VECTOR('',#487,1.);
#409=VECTOR('',#490,1.);
#410=VECTOR('',#493,1.);
#411=VECTOR('',#504,1.);
#412=VECTOR('',#505,1.);
#413=VECTOR('',#506,1.);
#414=VECTOR('',#507,1.);
#415=VECTOR('',#508,1.);
#416=VECTOR('',#509,1.);
#417=VECTOR('',#510,1.);
#418=AXIS2_PLACEMENT_3D('',#551,#452,#453);
#419=AXIS2_PLACEMENT_3D('',#560,#458,#459);
#420=AXIS2_PLACEMENT_3D('',#566,#463,#464);
#421=AXIS2_PLACEMENT_3D('',#572,#468,#469);
#422=AXIS2_PLACEMENT_3D('',#578,#473,#474);
#423=AXIS2_PLACEMENT_3D('',#584,#478,#479);
#424=AXIS2_PLACEMENT_3D('',#590,#483,#484);
#425=AXIS2_PLACEMENT_3D('',#596,#488,#489);
#426=AXIS2_PLACEMENT_3D('',#600,#491,#492);
#427=AXIS2_PLACEMENT_3D('',#602,#494,#495);
#428=AXIS2_PLACEMENT_3D('',#603,#496,#497);
#429=AXIS2_PLACEMENT_3D('',#604,#498,#499);
#430=AXIS2_PLACEMENT_3D('',#606,#500,#501);
#431=AXIS2_PLACEMENT_3D('',#608,#502,#503);
#432=AXIS2_PLACEMENT_3D('',#622,#511,#512);
#433=AXIS2_PLACEMENT_3D('',#623,#513,#514);
#434=AXIS2_PLACEMENT_3D('',#624,#515,#516);
#435=AXIS2_PLACEMENT_3D('',#625,#517,#518);
#436=AXIS2_PLACEMENT_3D('',#626,#519,#520);
#437=AXIS2_PLACEMENT_3D('',#627,#521,#522);
#438=AXIS2_PLACEMENT_3D('',#628,#523,#524);
#439=AXIS2_PLACEMENT_3D('',#629,#525,#526);
#440=AXIS2_PLACEMENT_3D('',#630,#527,#528);
#441=AXIS2_PLACEMENT_3D('',#631,#529,#530);
#442=AXIS2_PLACEMENT_3D('',#632,#531,#532);
#443=AXIS2_PLACEMENT_3D('',#633,#533,#534);
#444=AXIS2_PLACEMENT_3D('',#634,#535,#536);
#445=AXIS2_PLACEMENT_3D('',#635,#537,#538);
#446=AXIS2_PLACEMENT_3D('',#636,#539,#540);
#447=AXIS2_PLACEMENT_3D('',#638,#541,#542);
#448=AXIS2_PLACEMENT_3D('',#639,#543,#544);
#449=AXIS2_PLACEMENT_3D('',#640,#545,#546);
#450=AXIS2_PLACEMENT_3D('',#642,#547,#548);
#451=AXIS2_PLACEMENT_3D('',#643,#549,#550);
#452=DIRECTION('',(0.,0.,1.));
#453=DIRECTION('',(1.,0.,0.));
#454=DIRECTION('',(0.,0.,-1.));
#455=DIRECTION('',(0.,-1.,0.));
#456=DIRECTION('',(0.,0.,-1.));
#457=DIRECTION('',(0.,1.,0.));
#458=DIRECTION('',(-1.,0.,0.));
#459=DIRECTION('',(0.,0.,1.));
#460=DIRECTION('',(0.,0.,-1.));
#461=DIRECTION('',(-0.707106781186548,-0.707106781186548,0.));
#462=DIRECTION('',(0.707106781186547,0.707106781186547,0.));
#463=DIRECTION('',(-0.707106781186548,0.707106781186548,0.));
#464=DIRECTION('',(-0.707106781186548,-0.707106781186548,0.));
#465=DIRECTION('',(0.,0.,-1.));
#466=DIRECTION('',(-0.866025403784439,-0.5,0.));
#467=DIRECTION('',(0.866025403784439,0.5,0.));
#468=DIRECTION('',(-0.5,0.866025403784439,0.));
#469=DIRECTION('',(-0.866025403784439,-0.5,0.));
#470=DIRECTION('',(0.,0.,-1.));
#471=DIRECTION('',(-1.,0.,0.));
#472=DIRECTION('',(-1.,0.,0.));
#473=DIRECTION('',(0.,1.,0.));
#474=DIRECTION('',(0.,0.,1.));
#475=DIRECTION('',(0.,0.,-1.));
#476=DIRECTION('',(-0.866025403784439,0.5,0.));
#477=DIRECTION('',(-0.866025403784439,0.5,0.));
#478=DIRECTION('',(-0.5,-0.866025403784439,0.));
#479=DIRECTION('',(0.866025403784439,-0.5,0.));
#480=DIRECTION('',(0.,0.,-1.));
#481=DIRECTION('',(-0.707106781186548,0.707106781186548,0.));
#482=DIRECTION('',(-0.707106781186547,0.707106781186547,0.));
#483=DIRECTION('',(-0.707106781186548,-0.707106781186548,0.));
#484=DIRECTION('',(0.707106781186548,-0.707106781186548,0.));
#485=DIRECTION('',(0.,0.,-1.));
#486=DIRECTION('',(0.,1.,0.));
#487=DIRECTION('',(0.,1.,0.));
#488=DIRECTION('',(-1.,0.,0.));
#489=DIRECTION('',(0.,0.,1.));
#490=DIRECTION('',(1.,0.,0.));
#491=DIRECTION('',(0.,-1.,0.));
#492=DIRECTION('',(0.,0.,1.));
#493=DIRECTION('',(1.,0.,0.));
#494=DIRECTION('',(0.,-1.,0.));
#495=DIRECTION('',(0.,0.,1.));
#496=DIRECTION('',(0.,1.,0.));
#497=DIRECTION('',(0.,0.,1.));
#498=DIRECTION('',(0.,0.,-1.));
#499=DIRECTION('',(-1.,0.,0.));
#500=DIRECTION('',(0.,0.,-1.));
#501=DIRECTION('',(-1.,0.,0.));
#502=DIRECTION('',(0.,0.,-1.));
#503=DIRECTION('',(-1.,0.,0.));
#504=DIRECTION('',(0.707106781186548,-0.707106781186548,0.));
#505=DIRECTION('',(0.,-1.,0.));
#506=DIRECTION('',(0.,1.,0.));
#507=DIRECTION('',(0.707106781186548,0.707106781186548,0.));
#508=DIRECTION('',(0.866025403784439,0.5,0.));
#509=DIRECTION('',(1.,0.,0.));
#510=DIRECTION('',(0.866025403784439,-0.5,0.));
#511=DIRECTION('',(0.,0.,-1.));
#512=DIRECTION('',(-1.,0.,0.));
#513=DIRECTION('',(0.38268343236509,0.923879532511287,0.));
#514=DIRECTION('',(-0.923879532511287,0.38268343236509,0.));
#515=DIRECTION('',(0.,1.,0.));
#516=DIRECTION('',(0.,0.,1.));
#517=DIRECTION('',(0.793353340291235,0.608761429008721,0.));
#518=DIRECTION('',(-0.608761429008721,0.793353340291235,0.));
#519=DIRECTION('',(0.707106781186548,0.707106781186548,0.));
#520=DIRECTION('',(-0.707106781186545,0.707106781186548,0.));
#521=DIRECTION('',(0.965925826289068,0.25881904510252,0.));
#522=DIRECTION('',(-0.25881904510252,0.965925826289068,0.));
#523=DIRECTION('',(0.866025403784439,0.5,0.));
#524=DIRECTION('',(-0.5,0.866025403784436,0.));
#525=DIRECTION('',(0.965925826289068,-0.25881904510252,0.));
#526=DIRECTION('',(0.25881904510252,0.965925826289068,0.));
#527=DIRECTION('',(1.,0.,0.));
#528=DIRECTION('',(0.,0.,-1.));
#529=DIRECTION('',(0.793353340291235,-0.608761429008721,0.));
#530=DIRECTION('',(0.608761429008721,0.793353340291235,0.));
#531=DIRECTION('',(0.866025403784439,-0.5,0.));
#532=DIRECTION('',(0.5,0.866025403784443,0.));
#533=DIRECTION('',(0.38268343236509,-0.923879532511287,0.));
#534=DIRECTION('',(0.923879532511287,0.38268343236509,0.));
#535=DIRECTION('',(0.707106781186548,-0.707106781186548,0.));
#536=DIRECTION('',(0.707106781186545,0.707106781186545,0.));
#537=DIRECTION('',(0.,-1.,0.));
#538=DIRECTION('',(0.,0.,-1.));
#539=DIRECTION('',(0.,0.,1.));
#540=DIRECTION('',(1.,0.,0.));
#541=DIRECTION('',(0.,0.,-1.));
#542=DIRECTION('',(-1.,0.,0.));
#543=DIRECTION('',(0.,0.,-1.));
#544=DIRECTION('',(-1.,0.,0.));
#545=DIRECTION('',(0.,0.,1.));
#546=DIRECTION('',(1.,0.,0.));
#547=DIRECTION('',(0.,0.,-1.));
#548=DIRECTION('',(-1.,0.,0.));
#549=DIRECTION('',(0.,0.,-1.));
#550=DIRECTION('',(-1.,0.,0.));
#551=CARTESIAN_POINT('',(0.,0.,0.));
#552=CARTESIAN_POINT('',(-24.925,30.85,0.));
#553=CARTESIAN_POINT('',(-24.925,30.85,0.));
#554=CARTESIAN_POINT('',(-24.925,30.85,-0.95));
#555=CARTESIAN_POINT('',(-24.925,0.,-0.95));
#556=CARTESIAN_POINT('',(-24.925,0.,-0.95));
#557=CARTESIAN_POINT('',(-24.925,0.,0.));
#558=CARTESIAN_POINT('',(-24.925,0.,0.));
#559=CARTESIAN_POINT('',(-24.925,0.,0.));
#560=CARTESIAN_POINT('',(-24.925,0.,0.));
#561=CARTESIAN_POINT('',(-14.925,40.85,0.));
#562=CARTESIAN_POINT('',(-14.925,40.85,0.));
#563=CARTESIAN_POINT('',(-14.925,40.85,-0.95));
#564=CARTESIAN_POINT('',(-24.925,30.85,-0.95));
#565=CARTESIAN_POINT('',(-24.925,30.85,0.));
#566=CARTESIAN_POINT('',(-24.925,30.85,0.));
#567=CARTESIAN_POINT('',(-6.26474596215561,45.85,0.));
#568=CARTESIAN_POINT('',(-6.26474596215561,45.85,0.));
#569=CARTESIAN_POINT('',(-6.26474596215561,45.85,-0.95));
#570=CARTESIAN_POINT('',(-14.925,40.85,-0.95));
#571=CARTESIAN_POINT('',(-14.925,40.85,0.));
#572=CARTESIAN_POINT('',(-14.925,40.85,0.));
#573=CARTESIAN_POINT('',(6.26474596215561,45.85,0.));
#574=CARTESIAN_POINT('',(6.26474596215561,45.85,0.));
#575=CARTESIAN_POINT('',(6.26474596215561,45.85,-0.95));
#576=CARTESIAN_POINT('',(0.,45.85,-0.95));
#577=CARTESIAN_POINT('',(0.,45.85,0.));
#578=CARTESIAN_POINT('',(0.,45.85,0.));
#579=CARTESIAN_POINT('',(14.925,40.85,0.));
#580=CARTESIAN_POINT('',(14.925,40.85,0.));
#581=CARTESIAN_POINT('',(14.925,40.85,-0.95));
#582=CARTESIAN_POINT('',(6.26474596215561,45.85,-0.95));
#583=CARTESIAN_POINT('',(14.925,40.85,0.));
#584=CARTESIAN_POINT('',(14.925,40.85,0.));
#585=CARTESIAN_POINT('',(24.925,30.85,0.));
#586=CARTESIAN_POINT('',(24.925,30.85,0.));
#587=CARTESIAN_POINT('',(24.925,30.85,-0.95));
#588=CARTESIAN_POINT('',(14.925,40.85,-0.95));
#589=CARTESIAN_POINT('',(24.925,30.85,0.));
#590=CARTESIAN_POINT('',(24.925,30.85,0.));
#591=CARTESIAN_POINT('',(24.925,0.,0.));
#592=CARTESIAN_POINT('',(24.925,0.,0.));
#593=CARTESIAN_POINT('',(24.925,0.,-0.95));
#594=CARTESIAN_POINT('',(24.925,30.85,-0.95));
#595=CARTESIAN_POINT('',(24.925,0.,0.));
#596=CARTESIAN_POINT('',(24.925,0.,0.));
#597=CARTESIAN_POINT('',(0.,0.,-1.45));
#598=CARTESIAN_POINT('',(-24.425,0.,-1.45));
#599=CARTESIAN_POINT('',(24.425,0.,-1.45));
#600=CARTESIAN_POINT('',(24.425,0.,-0.95));
#601=CARTESIAN_POINT('',(0.,0.,0.));
#602=CARTESIAN_POINT('',(-24.425,0.,-0.95));
#603=CARTESIAN_POINT('',(0.,0.,0.));
#604=CARTESIAN_POINT('',(-19.64,26.85,0.));
#605=CARTESIAN_POINT('',(-21.14,26.85,0.));
#606=CARTESIAN_POINT('',(19.64,26.85,0.));
#607=CARTESIAN_POINT('',(18.14,26.85,0.));
#608=CARTESIAN_POINT('',(-24.925,0.,0.));
#609=CARTESIAN_POINT('',(24.5714466094067,30.4964466094067,-1.45));
#610=CARTESIAN_POINT('',(14.6179927963088,40.4499004225046,-1.45));
#611=CARTESIAN_POINT('',(24.425,30.6428932188135,-1.45));
#612=CARTESIAN_POINT('',(24.425,0.,-1.45));
#613=CARTESIAN_POINT('',(-24.425,0.,-1.45));
#614=CARTESIAN_POINT('',(-24.425,30.6428932188135,-1.45));
#615=CARTESIAN_POINT('',(-39.9964466094067,15.0714466094067,-1.45));
#616=CARTESIAN_POINT('',(-14.6179927963088,40.4499004225046,-1.45));
#617=CARTESIAN_POINT('',(-39.8635688722972,25.8743602791856,-1.45));
#618=CARTESIAN_POINT('',(-6.13077136594004,45.35,-1.45));
#619=CARTESIAN_POINT('',(-24.925,45.35,-1.45));
#620=CARTESIAN_POINT('',(6.13077136594005,45.35,-1.45));
#621=CARTESIAN_POINT('',(14.675,40.4169872981078,-1.45));
#622=CARTESIAN_POINT('',(-24.925,0.,-1.45));
#623=CARTESIAN_POINT('',(-24.425,30.6428932188135,-0.95));
#624=CARTESIAN_POINT('',(-24.425,0.,-0.95));
#625=CARTESIAN_POINT('',(-14.6179927963088,40.4499004225046,-0.95));
#626=CARTESIAN_POINT('',(-39.9964466094067,15.0714466094067,-0.95));
#627=CARTESIAN_POINT('',(-6.13077136594004,45.35,-0.95));
#628=CARTESIAN_POINT('',(-39.8635688722972,25.8743602791856,-0.95));
#629=CARTESIAN_POINT('',(6.13077136594001,45.35,-0.95));
#630=CARTESIAN_POINT('',(-24.925,45.35,-0.95));
#631=CARTESIAN_POINT('',(14.6179927963088,40.4499004225047,-0.95));
#632=CARTESIAN_POINT('',(14.675,40.4169872981078,-0.95));
#633=CARTESIAN_POINT('',(24.425,30.6428932188135,-0.95));
#634=CARTESIAN_POINT('',(24.5714466094067,30.4964466094067,-0.95));
#635=CARTESIAN_POINT('',(24.425,0.,-0.95));
#636=CARTESIAN_POINT('',(19.64,26.85,-1.));
#637=CARTESIAN_POINT('',(21.14,26.85,-1.));
#638=CARTESIAN_POINT('',(19.64,26.85,-1.));
#639=CARTESIAN_POINT('',(19.64,26.85,0.));
#640=CARTESIAN_POINT('',(-19.64,26.85,-1.));
#641=CARTESIAN_POINT('',(-18.14,26.85,-1.));
#642=CARTESIAN_POINT('',(-19.64,26.85,-1.));
#643=CARTESIAN_POINT('',(-19.64,26.85,0.));
#644=(
GEOMETRIC_REPRESENTATION_CONTEXT(3)
GLOBAL_UNCERTAINTY_ASSIGNED_CONTEXT((#645))
GLOBAL_UNIT_ASSIGNED_CONTEXT((#651,#647,#646))
REPRESENTATION_CONTEXT('ap16vol1','TOP_LEVEL_ASSEMBLY_PART')
);
#645=UNCERTAINTY_MEASURE_WITH_UNIT(LENGTH_MEASURE(2.E-005),#651,
'DISTANCE_ACCURACY_VALUE','Maximum Tolerance applied to model');
#646=(
NAMED_UNIT(*)
SI_UNIT($,.STERADIAN.)
SOLID_ANGLE_UNIT()
);
#647=(
CONVERSION_BASED_UNIT('DEGREE',#649)
NAMED_UNIT(#648)
PLANE_ANGLE_UNIT()
);
#648=DIMENSIONAL_EXPONENTS(0.,0.,0.,0.,0.,0.,0.);
#649=PLANE_ANGLE_MEASURE_WITH_UNIT(PLANE_ANGLE_MEASURE(0.0174532925),#650);
#650=(
NAMED_UNIT(*)
PLANE_ANGLE_UNIT()
SI_UNIT($,.RADIAN.)
);
#651=(
LENGTH_UNIT()
NAMED_UNIT(*)
SI_UNIT(.MILLI.,.METRE.)
);
ENDSEC;
END-ISO-10303-21;
