ISO-10303-21;
HEADER;
FILE_DESCRIPTION(('CATIA V5 STEP Exchange'),'2;1');

FILE_NAME('2026_0_TS_35X7.5ungelocht.stp','2011-01-19T09:07:17+00:00',('none'),('none'),'none','none',' none');

FILE_SCHEMA(('CONFIG_CONTROL_DESIGN'));

ENDSEC;
DATA;
#5=PRODUCT('2026_0_TS_35X7.5ungelocht','','',(#2)) ;
#1=APPLICATION_CONTEXT('configuration controlled 3D design of mechanical parts and assemblies') ;
#14=PRODUCT_DEFINITION(' ',' ',#6,#3) ;
#16=SECURITY_CLASSIFICATION(' ',' ',#15) ;
#15=SECURITY_CLASSIFICATION_LEVEL('unclassified') ;
#47=CARTESIAN_POINT(' ',(0.,0.,0.)) ;
#51=CARTESIAN_POINT('Punkt.1 ( *PT14 - wsp *MASTER -  )',(0.,0.,0.)) ;
#55=CARTESIAN_POINT('Punkt.2 ( *PT15 - wsp *MASTER -  )',(0.,0.,12.)) ;
#56=CARTESIAN_POINT('Axis2P3D Location',(-12.5,-6.5,0.)) ;
#61=CARTESIAN_POINT('Line Origine',(-12.5,-6.5,6.)) ;
#65=CARTESIAN_POINT('Cartesian Point',(-12.5,-6.5,12.)) ;
#67=CARTESIAN_POINT('Cartesian Point',(-12.5,-6.5,0.)) ;
#70=CARTESIAN_POINT('Line Origine',(0.,-6.5,12.)) ;
#74=CARTESIAN_POINT('Cartesian Point',(12.5,-6.5,12.)) ;
#77=CARTESIAN_POINT('Line Origine',(12.5,-6.5,6.)) ;
#81=CARTESIAN_POINT('Cartesian Point',(12.5,-6.5,0.)) ;
#84=CARTESIAN_POINT('Line Origine',(0.,-6.5,0.)) ;
#96=CARTESIAN_POINT('Axis2P3D Location',(12.5,-6.5,0.)) ;
#101=CARTESIAN_POINT('Line Origine',(12.5,-3.25,12.)) ;
#105=CARTESIAN_POINT('Cartesian Point',(12.5,0.,12.)) ;
#108=CARTESIAN_POINT('Line Origine',(12.5,0.,6.)) ;
#112=CARTESIAN_POINT('Cartesian Point',(12.5,0.,0.)) ;
#115=CARTESIAN_POINT('Line Origine',(12.5,-3.25,0.)) ;
#127=CARTESIAN_POINT('Axis2P3D Location',(12.5,0.,0.)) ;
#132=CARTESIAN_POINT('Line Origine',(15.,0.,12.)) ;
#136=CARTESIAN_POINT('Cartesian Point',(17.5,0.,12.)) ;
#139=CARTESIAN_POINT('Line Origine',(17.5,0.,6.)) ;
#143=CARTESIAN_POINT('Cartesian Point',(17.5,0.,0.)) ;
#146=CARTESIAN_POINT('Line Origine',(15.,0.,0.)) ;
#158=CARTESIAN_POINT('Axis2P3D Location',(17.5,-1.,0.)) ;
#163=CARTESIAN_POINT('Line Origine',(17.5,-0.5,12.)) ;
#167=CARTESIAN_POINT('Cartesian Point',(17.5,-1.,12.)) ;
#170=CARTESIAN_POINT('Line Origine',(17.5,-1.,6.)) ;
#174=CARTESIAN_POINT('Cartesian Point',(17.5,-1.,0.)) ;
#177=CARTESIAN_POINT('Line Origine',(17.5,-0.5,0.)) ;
#189=CARTESIAN_POINT('Axis2P3D Location',(13.5,-1.,0.)) ;
#194=CARTESIAN_POINT('Line Origine',(15.5,-1.,12.)) ;
#198=CARTESIAN_POINT('Cartesian Point',(13.5,-1.,12.)) ;
#201=CARTESIAN_POINT('Line Origine',(13.5,-1.,6.)) ;
#205=CARTESIAN_POINT('Cartesian Point',(13.5,-1.,0.)) ;
#208=CARTESIAN_POINT('Line Origine',(15.5,-1.,0.)) ;
#220=CARTESIAN_POINT('Axis2P3D Location',(13.5,-7.5,0.)) ;
#225=CARTESIAN_POINT('Line Origine',(13.5,-4.25,12.)) ;
#229=CARTESIAN_POINT('Cartesian Point',(13.5,-7.5,12.)) ;
#232=CARTESIAN_POINT('Line Origine',(13.5,-7.5,6.)) ;
#236=CARTESIAN_POINT('Cartesian Point',(13.5,-7.5,0.)) ;
#239=CARTESIAN_POINT('Line Origine',(13.5,-4.25,0.)) ;
#251=CARTESIAN_POINT('Axis2P3D Location',(-13.5,-7.5,0.)) ;
#256=CARTESIAN_POINT('Line Origine',(0.,-7.5,12.)) ;
#260=CARTESIAN_POINT('Cartesian Point',(-13.5,-7.5,12.)) ;
#263=CARTESIAN_POINT('Line Origine',(-13.5,-7.5,6.)) ;
#267=CARTESIAN_POINT('Cartesian Point',(-13.5,-7.5,0.)) ;
#270=CARTESIAN_POINT('Line Origine',(0.,-7.5,0.)) ;
#282=CARTESIAN_POINT('Axis2P3D Location',(-13.5,-7.5,0.)) ;
#287=CARTESIAN_POINT('Line Origine',(-13.5,-4.25,12.)) ;
#291=CARTESIAN_POINT('Cartesian Point',(-13.5,-1.,12.)) ;
#294=CARTESIAN_POINT('Line Origine',(-13.5,-1.,6.)) ;
#298=CARTESIAN_POINT('Cartesian Point',(-13.5,-1.,0.)) ;
#301=CARTESIAN_POINT('Line Origine',(-13.5,-4.25,0.)) ;
#313=CARTESIAN_POINT('Line Origine',(-15.5,-1.,12.)) ;
#317=CARTESIAN_POINT('Cartesian Point',(-17.5,-1.,12.)) ;
#320=CARTESIAN_POINT('Line Origine',(-17.5,-1.,6.)) ;
#324=CARTESIAN_POINT('Cartesian Point',(-17.5,-1.,0.)) ;
#327=CARTESIAN_POINT('Line Origine',(-15.5,-1.,0.)) ;
#339=CARTESIAN_POINT('Axis2P3D Location',(-17.5,-1.,0.)) ;
#344=CARTESIAN_POINT('Line Origine',(-17.5,-0.5,12.)) ;
#348=CARTESIAN_POINT('Cartesian Point',(-17.5,0.,12.)) ;
#351=CARTESIAN_POINT('Line Origine',(-17.5,0.,6.)) ;
#355=CARTESIAN_POINT('Cartesian Point',(-17.5,0.,0.)) ;
#358=CARTESIAN_POINT('Line Origine',(-17.5,-0.5,0.)) ;
#370=CARTESIAN_POINT('Line Origine',(-15.,0.,12.)) ;
#374=CARTESIAN_POINT('Cartesian Point',(-12.5,0.,12.)) ;
#377=CARTESIAN_POINT('Line Origine',(-12.5,0.,6.)) ;
#381=CARTESIAN_POINT('Cartesian Point',(-12.5,0.,0.)) ;
#384=CARTESIAN_POINT('Line Origine',(-15.,0.,0.)) ;
#396=CARTESIAN_POINT('Axis2P3D Location',(-12.5,-6.5,0.)) ;
#401=CARTESIAN_POINT('Line Origine',(-12.5,-3.25,12.)) ;
#406=CARTESIAN_POINT('Line Origine',(-12.5,-3.25,0.)) ;
#418=CARTESIAN_POINT('Axis2P3D Location',(0.,0.,12.)) ;
#438=CARTESIAN_POINT('Axis2P3D Location',(0.,0.,0.)) ;
#57=DIRECTION('Axis2P3D Direction',(0.,1.,0.)) ;
#58=DIRECTION('Axis2P3D XDirection',(1.,0.,0.)) ;
#62=DIRECTION('Vector Direction',(0.,0.,-1.)) ;
#71=DIRECTION('Vector Direction',(1.,0.,0.)) ;
#78=DIRECTION('Vector Direction',(0.,0.,-1.)) ;
#85=DIRECTION('Vector Direction',(1.,0.,0.)) ;
#97=DIRECTION('Axis2P3D Direction',(-1.,0.,0.)) ;
#98=DIRECTION('Axis2P3D XDirection',(0.,1.,0.)) ;
#102=DIRECTION('Vector Direction',(0.,1.,0.)) ;
#109=DIRECTION('Vector Direction',(0.,0.,-1.)) ;
#116=DIRECTION('Vector Direction',(0.,1.,0.)) ;
#128=DIRECTION('Axis2P3D Direction',(0.,1.,0.)) ;
#129=DIRECTION('Axis2P3D XDirection',(1.,0.,0.)) ;
#133=DIRECTION('Vector Direction',(1.,0.,0.)) ;
#140=DIRECTION('Vector Direction',(0.,0.,-1.)) ;
#147=DIRECTION('Vector Direction',(1.,0.,0.)) ;
#159=DIRECTION('Axis2P3D Direction',(-1.,0.,0.)) ;
#160=DIRECTION('Axis2P3D XDirection',(0.,1.,0.)) ;
#164=DIRECTION('Vector Direction',(0.,1.,0.)) ;
#171=DIRECTION('Vector Direction',(0.,0.,-1.)) ;
#178=DIRECTION('Vector Direction',(0.,1.,0.)) ;
#190=DIRECTION('Axis2P3D Direction',(0.,1.,0.)) ;
#191=DIRECTION('Axis2P3D XDirection',(1.,0.,0.)) ;
#195=DIRECTION('Vector Direction',(1.,0.,0.)) ;
#202=DIRECTION('Vector Direction',(0.,0.,-1.)) ;
#209=DIRECTION('Vector Direction',(1.,0.,0.)) ;
#221=DIRECTION('Axis2P3D Direction',(-1.,0.,0.)) ;
#222=DIRECTION('Axis2P3D XDirection',(0.,1.,0.)) ;
#226=DIRECTION('Vector Direction',(0.,1.,0.)) ;
#233=DIRECTION('Vector Direction',(0.,0.,-1.)) ;
#240=DIRECTION('Vector Direction',(0.,1.,0.)) ;
#252=DIRECTION('Axis2P3D Direction',(0.,1.,0.)) ;
#253=DIRECTION('Axis2P3D XDirection',(1.,0.,0.)) ;
#257=DIRECTION('Vector Direction',(1.,0.,0.)) ;
#264=DIRECTION('Vector Direction',(0.,0.,-1.)) ;
#271=DIRECTION('Vector Direction',(1.,0.,0.)) ;
#283=DIRECTION('Axis2P3D Direction',(-1.,0.,0.)) ;
#284=DIRECTION('Axis2P3D XDirection',(0.,1.,0.)) ;
#288=DIRECTION('Vector Direction',(0.,1.,0.)) ;
#295=DIRECTION('Vector Direction',(0.,0.,-1.)) ;
#302=DIRECTION('Vector Direction',(0.,1.,0.)) ;
#314=DIRECTION('Vector Direction',(-1.,0.,0.)) ;
#321=DIRECTION('Vector Direction',(0.,0.,-1.)) ;
#328=DIRECTION('Vector Direction',(-1.,0.,0.)) ;
#340=DIRECTION('Axis2P3D Direction',(-1.,0.,0.)) ;
#341=DIRECTION('Axis2P3D XDirection',(0.,1.,0.)) ;
#345=DIRECTION('Vector Direction',(0.,1.,0.)) ;
#352=DIRECTION('Vector Direction',(0.,0.,-1.)) ;
#359=DIRECTION('Vector Direction',(0.,1.,0.)) ;
#371=DIRECTION('Vector Direction',(-1.,0.,0.)) ;
#378=DIRECTION('Vector Direction',(0.,0.,-1.)) ;
#385=DIRECTION('Vector Direction',(-1.,0.,0.)) ;
#397=DIRECTION('Axis2P3D Direction',(-1.,0.,0.)) ;
#398=DIRECTION('Axis2P3D XDirection',(0.,1.,0.)) ;
#402=DIRECTION('Vector Direction',(0.,1.,0.)) ;
#407=DIRECTION('Vector Direction',(0.,1.,0.)) ;
#419=DIRECTION('Axis2P3D Direction',(0.,0.,-1.)) ;
#420=DIRECTION('Axis2P3D XDirection',(-1.,0.,0.)) ;
#439=DIRECTION('Axis2P3D Direction',(0.,0.,-1.)) ;
#440=DIRECTION('Axis2P3D XDirection',(-1.,0.,0.)) ;
#48=AXIS2_PLACEMENT_3D(' ',#47,$,$) ;
#59=AXIS2_PLACEMENT_3D('Plane Axis2P3D',#56,#57,#58) ;
#99=AXIS2_PLACEMENT_3D('Plane Axis2P3D',#96,#97,#98) ;
#130=AXIS2_PLACEMENT_3D('Plane Axis2P3D',#127,#128,#129) ;
#161=AXIS2_PLACEMENT_3D('Plane Axis2P3D',#158,#159,#160) ;
#192=AXIS2_PLACEMENT_3D('Plane Axis2P3D',#189,#190,#191) ;
#223=AXIS2_PLACEMENT_3D('Plane Axis2P3D',#220,#221,#222) ;
#254=AXIS2_PLACEMENT_3D('Plane Axis2P3D',#251,#252,#253) ;
#285=AXIS2_PLACEMENT_3D('Plane Axis2P3D',#282,#283,#284) ;
#342=AXIS2_PLACEMENT_3D('Plane Axis2P3D',#339,#340,#341) ;
#399=AXIS2_PLACEMENT_3D('Plane Axis2P3D',#396,#397,#398) ;
#421=AXIS2_PLACEMENT_3D('Plane Axis2P3D',#418,#419,#420) ;
#441=AXIS2_PLACEMENT_3D('Plane Axis2P3D',#438,#439,#440) ;
#40=PRODUCT_DEFINITION_SHAPE(' ',' ',#14) ;
#31=APPROVAL_PERSON_ORGANIZATION(#25,#21,#19) ;
#25=PERSON_AND_ORGANIZATION(#22,#23) ;
#22=PERSON(' ',' ',' ',$,$,$) ;
#23=ORGANIZATION(' ',' ',' ') ;
#21=APPROVAL(#20,' ') ;
#20=APPROVAL_STATUS('not_yet_approved') ;
#19=APPROVAL_ROLE('APPROVER') ;
#13=DATE_AND_TIME(#11,#12) ;
#12=LOCAL_TIME(10,7,17.,#10) ;
#10=COORDINATED_UNIVERSAL_TIME_OFFSET(0,0,.AHEAD.) ;
#90=ORIENTED_EDGE('Oriented Edge',*,*,#69,.F.) ;
#91=ORIENTED_EDGE('Oriented Edge',*,*,#76,.T.) ;
#92=ORIENTED_EDGE('Oriented Edge',*,*,#83,.T.) ;
#93=ORIENTED_EDGE('Oriented Edge',*,*,#88,.F.) ;
#121=ORIENTED_EDGE('Oriented Edge',*,*,#83,.F.) ;
#122=ORIENTED_EDGE('Oriented Edge',*,*,#107,.T.) ;
#123=ORIENTED_EDGE('Oriented Edge',*,*,#114,.T.) ;
#124=ORIENTED_EDGE('Oriented Edge',*,*,#119,.F.) ;
#152=ORIENTED_EDGE('Oriented Edge',*,*,#114,.F.) ;
#153=ORIENTED_EDGE('Oriented Edge',*,*,#138,.T.) ;
#154=ORIENTED_EDGE('Oriented Edge',*,*,#145,.T.) ;
#155=ORIENTED_EDGE('Oriented Edge',*,*,#150,.F.) ;
#183=ORIENTED_EDGE('Oriented Edge',*,*,#145,.F.) ;
#184=ORIENTED_EDGE('Oriented Edge',*,*,#169,.T.) ;
#185=ORIENTED_EDGE('Oriented Edge',*,*,#176,.T.) ;
#186=ORIENTED_EDGE('Oriented Edge',*,*,#181,.F.) ;
#214=ORIENTED_EDGE('Oriented Edge',*,*,#176,.F.) ;
#215=ORIENTED_EDGE('Oriented Edge',*,*,#200,.T.) ;
#216=ORIENTED_EDGE('Oriented Edge',*,*,#207,.T.) ;
#217=ORIENTED_EDGE('Oriented Edge',*,*,#212,.F.) ;
#245=ORIENTED_EDGE('Oriented Edge',*,*,#207,.F.) ;
#246=ORIENTED_EDGE('Oriented Edge',*,*,#231,.T.) ;
#247=ORIENTED_EDGE('Oriented Edge',*,*,#238,.T.) ;
#248=ORIENTED_EDGE('Oriented Edge',*,*,#243,.F.) ;
#276=ORIENTED_EDGE('Oriented Edge',*,*,#238,.F.) ;
#277=ORIENTED_EDGE('Oriented Edge',*,*,#262,.T.) ;
#278=ORIENTED_EDGE('Oriented Edge',*,*,#269,.T.) ;
#279=ORIENTED_EDGE('Oriented Edge',*,*,#274,.F.) ;
#307=ORIENTED_EDGE('Oriented Edge',*,*,#269,.F.) ;
#308=ORIENTED_EDGE('Oriented Edge',*,*,#293,.T.) ;
#309=ORIENTED_EDGE('Oriented Edge',*,*,#300,.T.) ;
#310=ORIENTED_EDGE('Oriented Edge',*,*,#305,.F.) ;
#333=ORIENTED_EDGE('Oriented Edge',*,*,#300,.F.) ;
#334=ORIENTED_EDGE('Oriented Edge',*,*,#319,.T.) ;
#335=ORIENTED_EDGE('Oriented Edge',*,*,#326,.T.) ;
#336=ORIENTED_EDGE('Oriented Edge',*,*,#331,.F.) ;
#364=ORIENTED_EDGE('Oriented Edge',*,*,#326,.F.) ;
#365=ORIENTED_EDGE('Oriented Edge',*,*,#350,.T.) ;
#366=ORIENTED_EDGE('Oriented Edge',*,*,#357,.T.) ;
#367=ORIENTED_EDGE('Oriented Edge',*,*,#362,.F.) ;
#390=ORIENTED_EDGE('Oriented Edge',*,*,#357,.F.) ;
#391=ORIENTED_EDGE('Oriented Edge',*,*,#376,.T.) ;
#392=ORIENTED_EDGE('Oriented Edge',*,*,#383,.T.) ;
#393=ORIENTED_EDGE('Oriented Edge',*,*,#388,.F.) ;
#412=ORIENTED_EDGE('Oriented Edge',*,*,#383,.F.) ;
#413=ORIENTED_EDGE('Oriented Edge',*,*,#405,.T.) ;
#414=ORIENTED_EDGE('Oriented Edge',*,*,#69,.T.) ;
#415=ORIENTED_EDGE('Oriented Edge',*,*,#410,.F.) ;
#424=ORIENTED_EDGE('Oriented Edge',*,*,#405,.F.) ;
#425=ORIENTED_EDGE('Oriented Edge',*,*,#376,.F.) ;
#426=ORIENTED_EDGE('Oriented Edge',*,*,#350,.F.) ;
#427=ORIENTED_EDGE('Oriented Edge',*,*,#319,.F.) ;
#428=ORIENTED_EDGE('Oriented Edge',*,*,#293,.F.) ;
#429=ORIENTED_EDGE('Oriented Edge',*,*,#262,.F.) ;
#430=ORIENTED_EDGE('Oriented Edge',*,*,#231,.F.) ;
#431=ORIENTED_EDGE('Oriented Edge',*,*,#200,.F.) ;
#432=ORIENTED_EDGE('Oriented Edge',*,*,#169,.F.) ;
#433=ORIENTED_EDGE('Oriented Edge',*,*,#138,.F.) ;
#434=ORIENTED_EDGE('Oriented Edge',*,*,#107,.F.) ;
#435=ORIENTED_EDGE('Oriented Edge',*,*,#76,.F.) ;
#444=ORIENTED_EDGE('Oriented Edge',*,*,#88,.T.) ;
#445=ORIENTED_EDGE('Oriented Edge',*,*,#119,.T.) ;
#446=ORIENTED_EDGE('Oriented Edge',*,*,#150,.T.) ;
#447=ORIENTED_EDGE('Oriented Edge',*,*,#181,.T.) ;
#448=ORIENTED_EDGE('Oriented Edge',*,*,#212,.T.) ;
#449=ORIENTED_EDGE('Oriented Edge',*,*,#243,.T.) ;
#450=ORIENTED_EDGE('Oriented Edge',*,*,#274,.T.) ;
#451=ORIENTED_EDGE('Oriented Edge',*,*,#305,.T.) ;
#452=ORIENTED_EDGE('Oriented Edge',*,*,#331,.T.) ;
#453=ORIENTED_EDGE('Oriented Edge',*,*,#362,.T.) ;
#454=ORIENTED_EDGE('Oriented Edge',*,*,#388,.T.) ;
#455=ORIENTED_EDGE('Oriented Edge',*,*,#410,.T.) ;
#458=CLOSED_SHELL('Closed Shell',(#95,#126,#157,#188,#219,#250,#281,#312,#338,#369,#395,#417,#437,#457)) ;
#63=VECTOR('Line Direction',#62,1.) ;
#72=VECTOR('Line Direction',#71,1.) ;
#79=VECTOR('Line Direction',#78,1.) ;
#86=VECTOR('Line Direction',#85,1.) ;
#103=VECTOR('Line Direction',#102,1.) ;
#110=VECTOR('Line Direction',#109,1.) ;
#117=VECTOR('Line Direction',#116,1.) ;
#134=VECTOR('Line Direction',#133,1.) ;
#141=VECTOR('Line Direction',#140,1.) ;
#148=VECTOR('Line Direction',#147,1.) ;
#165=VECTOR('Line Direction',#164,1.) ;
#172=VECTOR('Line Direction',#171,1.) ;
#179=VECTOR('Line Direction',#178,1.) ;
#196=VECTOR('Line Direction',#195,1.) ;
#203=VECTOR('Line Direction',#202,1.) ;
#210=VECTOR('Line Direction',#209,1.) ;
#227=VECTOR('Line Direction',#226,1.) ;
#234=VECTOR('Line Direction',#233,1.) ;
#241=VECTOR('Line Direction',#240,1.) ;
#258=VECTOR('Line Direction',#257,1.) ;
#265=VECTOR('Line Direction',#264,1.) ;
#272=VECTOR('Line Direction',#271,1.) ;
#289=VECTOR('Line Direction',#288,1.) ;
#296=VECTOR('Line Direction',#295,1.) ;
#303=VECTOR('Line Direction',#302,1.) ;
#315=VECTOR('Line Direction',#314,1.) ;
#322=VECTOR('Line Direction',#321,1.) ;
#329=VECTOR('Line Direction',#328,1.) ;
#346=VECTOR('Line Direction',#345,1.) ;
#353=VECTOR('Line Direction',#352,1.) ;
#360=VECTOR('Line Direction',#359,1.) ;
#372=VECTOR('Line Direction',#371,1.) ;
#379=VECTOR('Line Direction',#378,1.) ;
#386=VECTOR('Line Direction',#385,1.) ;
#403=VECTOR('Line Direction',#402,1.) ;
#408=VECTOR('Line Direction',#407,1.) ;
#460=ADVANCED_BREP_SHAPE_REPRESENTATION('NONE',(#459),#46) ;
#49=SHAPE_REPRESENTATION(' ',(#48),#46) ;
#95=ADVANCED_FACE('',(#94),#60,.T.) ;
#126=ADVANCED_FACE('',(#125),#100,.T.) ;
#157=ADVANCED_FACE('',(#156),#131,.T.) ;
#188=ADVANCED_FACE('',(#187),#162,.F.) ;
#219=ADVANCED_FACE('',(#218),#193,.F.) ;
#250=ADVANCED_FACE('',(#249),#224,.F.) ;
#281=ADVANCED_FACE('',(#280),#255,.F.) ;
#312=ADVANCED_FACE('',(#311),#286,.T.) ;
#338=ADVANCED_FACE('',(#337),#193,.F.) ;
#369=ADVANCED_FACE('',(#368),#343,.T.) ;
#395=ADVANCED_FACE('',(#394),#131,.T.) ;
#417=ADVANCED_FACE('',(#416),#400,.F.) ;
#437=ADVANCED_FACE('',(#436),#422,.F.) ;
#457=ADVANCED_FACE('',(#456),#442,.T.) ;
#4=APPLICATION_PROTOCOL_DEFINITION('international standard','config_control_design',1994,#1) ;
#32=APPROVAL_DATE_TIME(#13,#21) ;
#459=MANIFOLD_SOLID_BREP('Manifold Brep',#458) ;
#11=CALENDAR_DATE(2004,6,2) ;
#30=CC_DESIGN_APPROVAL(#21,(#16,#6,#14)) ;
#18=CC_DESIGN_DATE_AND_TIME_ASSIGNMENT(#13,#17,(#16)) ;
#29=CC_DESIGN_DATE_AND_TIME_ASSIGNMENT(#13,#28,(#14)) ;
#17=DATE_TIME_ROLE('classification_date') ;
#28=DATE_TIME_ROLE('creation_date') ;
#27=CC_DESIGN_PERSON_AND_ORGANIZATION_ASSIGNMENT(#25,#26,(#16)) ;
#33=CC_DESIGN_PERSON_AND_ORGANIZATION_ASSIGNMENT(#25,#34,(#6)) ;
#35=CC_DESIGN_PERSON_AND_ORGANIZATION_ASSIGNMENT(#25,#36,(#6,#14)) ;
#37=CC_DESIGN_PERSON_AND_ORGANIZATION_ASSIGNMENT(#25,#38,(#5)) ;
#26=PERSON_AND_ORGANIZATION_ROLE('classification_officer') ;
#34=PERSON_AND_ORGANIZATION_ROLE('design_supplier') ;
#36=PERSON_AND_ORGANIZATION_ROLE('creator') ;
#38=PERSON_AND_ORGANIZATION_ROLE('design_owner') ;
#39=CC_DESIGN_SECURITY_CLASSIFICATION(#16,(#6)) ;
#54=SHAPE_REPRESENTATION_RELATIONSHIP(' ',' ',#49,#52) ;
#461=SHAPE_REPRESENTATION_RELATIONSHIP(' ',' ',#49,#460) ;
#3=DESIGN_CONTEXT(' ',#1,'design') ;
#69=EDGE_CURVE('',#66,#68,#64,.T.) ;
#76=EDGE_CURVE('',#66,#75,#73,.T.) ;
#83=EDGE_CURVE('',#75,#82,#80,.T.) ;
#88=EDGE_CURVE('',#68,#82,#87,.T.) ;
#107=EDGE_CURVE('',#75,#106,#104,.T.) ;
#114=EDGE_CURVE('',#106,#113,#111,.T.) ;
#119=EDGE_CURVE('',#82,#113,#118,.T.) ;
#138=EDGE_CURVE('',#106,#137,#135,.T.) ;
#145=EDGE_CURVE('',#137,#144,#142,.T.) ;
#150=EDGE_CURVE('',#113,#144,#149,.T.) ;
#169=EDGE_CURVE('',#137,#168,#166,.F.) ;
#176=EDGE_CURVE('',#168,#175,#173,.T.) ;
#181=EDGE_CURVE('',#144,#175,#180,.F.) ;
#200=EDGE_CURVE('',#168,#199,#197,.F.) ;
#207=EDGE_CURVE('',#199,#206,#204,.T.) ;
#212=EDGE_CURVE('',#175,#206,#211,.F.) ;
#231=EDGE_CURVE('',#199,#230,#228,.F.) ;
#238=EDGE_CURVE('',#230,#237,#235,.T.) ;
#243=EDGE_CURVE('',#206,#237,#242,.F.) ;
#262=EDGE_CURVE('',#230,#261,#259,.F.) ;
#269=EDGE_CURVE('',#261,#268,#266,.T.) ;
#274=EDGE_CURVE('',#237,#268,#273,.F.) ;
#293=EDGE_CURVE('',#261,#292,#290,.T.) ;
#300=EDGE_CURVE('',#292,#299,#297,.T.) ;
#305=EDGE_CURVE('',#268,#299,#304,.T.) ;
#319=EDGE_CURVE('',#292,#318,#316,.T.) ;
#326=EDGE_CURVE('',#318,#325,#323,.T.) ;
#331=EDGE_CURVE('',#299,#325,#330,.T.) ;
#350=EDGE_CURVE('',#318,#349,#347,.T.) ;
#357=EDGE_CURVE('',#349,#356,#354,.T.) ;
#362=EDGE_CURVE('',#325,#356,#361,.T.) ;
#376=EDGE_CURVE('',#349,#375,#373,.F.) ;
#383=EDGE_CURVE('',#375,#382,#380,.T.) ;
#388=EDGE_CURVE('',#356,#382,#387,.F.) ;
#405=EDGE_CURVE('',#375,#66,#404,.F.) ;
#410=EDGE_CURVE('',#382,#68,#409,.F.) ;
#89=EDGE_LOOP('Oriented Loop',(#90,#91,#92,#93)) ;
#120=EDGE_LOOP('Oriented Loop',(#121,#122,#123,#124)) ;
#151=EDGE_LOOP('Oriented Loop',(#152,#153,#154,#155)) ;
#182=EDGE_LOOP('Oriented Loop',(#183,#184,#185,#186)) ;
#213=EDGE_LOOP('Oriented Loop',(#214,#215,#216,#217)) ;
#244=EDGE_LOOP('Oriented Loop',(#245,#246,#247,#248)) ;
#275=EDGE_LOOP('Oriented Loop',(#276,#277,#278,#279)) ;
#306=EDGE_LOOP('Oriented Loop',(#307,#308,#309,#310)) ;
#332=EDGE_LOOP('Oriented Loop',(#333,#334,#335,#336)) ;
#363=EDGE_LOOP('Oriented Loop',(#364,#365,#366,#367)) ;
#389=EDGE_LOOP('Oriented Loop',(#390,#391,#392,#393)) ;
#411=EDGE_LOOP('Oriented Loop',(#412,#413,#414,#415)) ;
#423=EDGE_LOOP('Oriented Loop',(#424,#425,#426,#427,#428,#429,#430,#431,#432,#433,#434,#435)) ;
#443=EDGE_LOOP('Oriented Loop',(#444,#445,#446,#447,#448,#449,#450,#451,#452,#453,#454,#455)) ;
#94=FACE_OUTER_BOUND('Face Bound',#89,.T.) ;
#125=FACE_OUTER_BOUND('Face Bound',#120,.T.) ;
#156=FACE_OUTER_BOUND('Face Bound',#151,.T.) ;
#187=FACE_OUTER_BOUND('Face Bound',#182,.T.) ;
#218=FACE_OUTER_BOUND('Face Bound',#213,.T.) ;
#249=FACE_OUTER_BOUND('Face Bound',#244,.T.) ;
#280=FACE_OUTER_BOUND('Face Bound',#275,.T.) ;
#311=FACE_OUTER_BOUND('Face Bound',#306,.T.) ;
#337=FACE_OUTER_BOUND('Face Bound',#332,.T.) ;
#368=FACE_OUTER_BOUND('Face Bound',#363,.T.) ;
#394=FACE_OUTER_BOUND('Face Bound',#389,.T.) ;
#416=FACE_OUTER_BOUND('Face Bound',#411,.T.) ;
#436=FACE_OUTER_BOUND('Face Bound',#423,.T.) ;
#456=FACE_OUTER_BOUND('Face Bound',#443,.T.) ;
#53=GEOMETRIC_SET('NONE',(#51,#55)) ;
#52=GEOMETRICALLY_BOUNDED_SURFACE_SHAPE_REPRESENTATION('NONE',(#53),#46) ;
#45=UNCERTAINTY_MEASURE_WITH_UNIT(LENGTH_MEASURE(0.005),#41,'TOL_CRV','CONFUSED CURVE UNCERTAINTY') ;
#64=LINE('Line',#61,#63) ;
#73=LINE('Line',#70,#72) ;
#80=LINE('Line',#77,#79) ;
#87=LINE('Line',#84,#86) ;
#104=LINE('Line',#101,#103) ;
#111=LINE('Line',#108,#110) ;
#118=LINE('Line',#115,#117) ;
#135=LINE('Line',#132,#134) ;
#142=LINE('Line',#139,#141) ;
#149=LINE('Line',#146,#148) ;
#166=LINE('Line',#163,#165) ;
#173=LINE('Line',#170,#172) ;
#180=LINE('Line',#177,#179) ;
#197=LINE('Line',#194,#196) ;
#204=LINE('Line',#201,#203) ;
#211=LINE('Line',#208,#210) ;
#228=LINE('Line',#225,#227) ;
#235=LINE('Line',#232,#234) ;
#242=LINE('Line',#239,#241) ;
#259=LINE('Line',#256,#258) ;
#266=LINE('Line',#263,#265) ;
#273=LINE('Line',#270,#272) ;
#290=LINE('Line',#287,#289) ;
#297=LINE('Line',#294,#296) ;
#304=LINE('Line',#301,#303) ;
#316=LINE('Line',#313,#315) ;
#323=LINE('Line',#320,#322) ;
#330=LINE('Line',#327,#329) ;
#347=LINE('Line',#344,#346) ;
#354=LINE('Line',#351,#353) ;
#361=LINE('Line',#358,#360) ;
#373=LINE('Line',#370,#372) ;
#380=LINE('Line',#377,#379) ;
#387=LINE('Line',#384,#386) ;
#404=LINE('Line',#401,#403) ;
#409=LINE('Line',#406,#408) ;
#2=MECHANICAL_CONTEXT(' ',#1,'mechanical') ;
#24=PERSONAL_ADDRESS(' ',' ',' ',' ',' ',' ',' ',' ',' ',' ',' ',' ',(#22),' ') ;
#60=PLANE('Plane',#59) ;
#100=PLANE('Plane',#99) ;
#131=PLANE('Plane',#130) ;
#162=PLANE('Plane',#161) ;
#193=PLANE('Plane',#192) ;
#224=PLANE('Plane',#223) ;
#255=PLANE('Plane',#254) ;
#286=PLANE('Plane',#285) ;
#343=PLANE('Plane',#342) ;
#400=PLANE('Plane',#399) ;
#422=PLANE('Plane',#421) ;
#442=PLANE('Plane',#441) ;
#43=PLANE_ANGLE_MEASURE_WITH_UNIT(PLANE_ANGLE_MEASURE(0.0174532925199),#42) ;
#7=PRODUCT_CATEGORY('part',$) ;
#9=PRODUCT_CATEGORY_RELATIONSHIP(' ',' ',#7,#8) ;
#6=PRODUCT_DEFINITION_FORMATION_WITH_SPECIFIED_SOURCE('',' ',#5,.NOT_KNOWN.) ;
#8=PRODUCT_RELATED_PRODUCT_CATEGORY('detail',$,(#5)) ;
#50=SHAPE_DEFINITION_REPRESENTATION(#40,#49) ;
#66=VERTEX_POINT('Vertex Point',#65) ;
#68=VERTEX_POINT('Vertex Point',#67) ;
#75=VERTEX_POINT('Vertex Point',#74) ;
#82=VERTEX_POINT('Vertex Point',#81) ;
#106=VERTEX_POINT('Vertex Point',#105) ;
#113=VERTEX_POINT('Vertex Point',#112) ;
#137=VERTEX_POINT('Vertex Point',#136) ;
#144=VERTEX_POINT('Vertex Point',#143) ;
#168=VERTEX_POINT('Vertex Point',#167) ;
#175=VERTEX_POINT('Vertex Point',#174) ;
#199=VERTEX_POINT('Vertex Point',#198) ;
#206=VERTEX_POINT('Vertex Point',#205) ;
#230=VERTEX_POINT('Vertex Point',#229) ;
#237=VERTEX_POINT('Vertex Point',#236) ;
#261=VERTEX_POINT('Vertex Point',#260) ;
#268=VERTEX_POINT('Vertex Point',#267) ;
#292=VERTEX_POINT('Vertex Point',#291) ;
#299=VERTEX_POINT('Vertex Point',#298) ;
#318=VERTEX_POINT('Vertex Point',#317) ;
#325=VERTEX_POINT('Vertex Point',#324) ;
#349=VERTEX_POINT('Vertex Point',#348) ;
#356=VERTEX_POINT('Vertex Point',#355) ;
#375=VERTEX_POINT('Vertex Point',#374) ;
#382=VERTEX_POINT('Vertex Point',#381) ;
#41=(LENGTH_UNIT()NAMED_UNIT(*)SI_UNIT(.MILLI.,.METRE.)) ;
#42=(NAMED_UNIT(*)PLANE_ANGLE_UNIT()SI_UNIT($,.RADIAN.)) ;
#44=(NAMED_UNIT(*)SI_UNIT($,.STERADIAN.)SOLID_ANGLE_UNIT()) ;
#46=(GEOMETRIC_REPRESENTATION_CONTEXT(3)GLOBAL_UNCERTAINTY_ASSIGNED_CONTEXT((#45))GLOBAL_UNIT_ASSIGNED_CONTEXT((#41,#42,#44))REPRESENTATION_CONTEXT(' ',' ')) ;
ENDSEC;
END-ISO-10303-21;
